Oops, an error
Loading. Please wait.

Ayer Te Ví Tab

version 2
version 2

Whole song

47 views 1 this week
no commentswrite comment
1 2 3 4 5
3 more votes to show rating
add to favorites
launch autoscroll
font size
0
reset
how to read this tab
guitar tuner
Autoscroll
slow
fast
+/-
esc
set tempo
stop
Help us to improve Ultimate-Guitar.com Take our survey!
×
Espero q les guste muxo... q sea de bendicion para ustedes...
cualquier cosa a mi correo.. cuidense. Por seacaso se pone capo
en el primer traste.

INTRO:


   Abmaj7           Eb(add4)      Cm7    Eb/G
E----4------------------------------------3----------------
A--------------------6------------3------------------------
D-----5--------------5-------------------------------------
G------1-------------1-------------------------------------
B-------4------------4------------------4-4----------------
e---------------------------------3p1-1--------------------


   Abmaj7           Eb(add4)      Cm7
E----4-----------------------------------------------------
A--------------------6------------3-------3----------------
D-----5--------------5-------------------------------------
G------1-------------1-------------------------------------
B-------4------------4------------------4-4----------------
e---------------------------------3p1-1--------------------

             Bb(sus4)
E------------------------------------------------------------
A-------------1------1--------------------------------------
D---------------------------------------------------------
G------1----------------------------------------------------
B-------4----------4-----------------------------------------
e-----------3p1h1-1--1----------------------------------------


se pone capo en 1° traste

Abmaj7           Eb(add4)    Eb/G    Bbsus4    Cm7

E-1-             E-1-       E-3-      E-1-     E-3-
B-4-             B-4-       B-4-      B-4-     B-4-
G-1-             G-1-       G-3-      G-3-     G-3-
D-5-             D-5-       D-1-      D-3-     D-5-
A-x-             A-6-       A-1-      A-1-     A-3-
E-4-             E-x-       E-3-      E-x-     E-X-
Suggest correction
Give kudos to tab author, rate the tab!
1 2 3 4 5
comments
print report bad tab
guest
You may want to rate the tab now too:
select rating
Wanna post a correction for this tab? Suggest correction