Oops, an error
Loading. Please wait.

Ayer Te Ví Tab

version 3
version 3

Whole song

122 views 1 this week
no commentswrite comment
1 2 3 4 5
2 more votes to show rating
add to favorites
×
Save as Personal and add changes to this tab that will be seen only by you. Learn more ›
×
You can save this tab as Personal to edit and correct it or add notes. All changes will be seen only by you. Learn more »
save as personal
new!
launch autoscroll
font size
0
reset
how to read this tab
guitar tuner
Autoscroll
slow
fast
+/-
esc
set tempo
stop
Uffffff.....

si me cOstO subir este cantO, Ojala les sirva....

cOloquen el capO en el 1er traste ok.
La tablatura cuenta apartir del capO.

Intro:
     Ab7     Cm7  Ab7/Bb
e-|-------------------------|
B-|----3--3----5p3-3--3-----|
G-|---0---0--------2--0-----|
D-|--4----------------------|
A-|------------2------0-----|
E-|-3-----2-----------------|

     Ab7      Fm9        Ab7/Bb   Bb7
e-|------------2p0-0------------0-----|
B-|-----3--3---3---3--3----3--3---0-2-|
G-|----0---0----------0---0---0-----0-|
D-|---4---------------4--4----4-------|
A-|---------------------------0-----0-|
E-|--3-----2---0----------------------|

C A N T O:

    Eb             Bb/Ab     Ab        Fm9
  Ayer te vi fue más cla...luna en mi no quedaron dudas
e-|-----------------------------------------------------|
B-|-3--3--3---------2---2----0-*-------3----3------3--*-|
G-|-2--2--2---------2---2----0-*-------0----0------0--*-|
D-|-0-----0---------------------------------------------|
A-|-----------------------------------------------------|
E-|-----------------3--------3---------0-----------0----|


        Ab             Eb/G      Fm9
fue una clara aparición    me ha saltado el corazón
e-|------------------------------------------------|
B-|-----0-------0---0---3--------3--------3-----3--|
G-|-----0-------0---0---2--------0--------0-----0--|
D-|---------------------0--------------------------|
A-|------------------------------------------------|
E-|-----3-----------3---2--------0--------------0--|

    Ab7/Bb  Bb7
 cuando te vi
e-|-----0-----|
B-|---3---0-2-|
G-|---0-----0-|
D-|---4-------|
A-|---0-----0-|
E-|-----------|

     Eb             Bb/Ab     Ab        Fm9
   Ayer te vi  des...buscarte tanto antes de salir el sol
e-|------------------------------------------------------|
B-|-3--3--3--*------2---2-----0----*----3----3------3--*-|
G-|-2--2--2--*------2---2-----0----*----0----0------0--*-|
D-|-0-----0----------------------------------------------|
A-|------------------------------------------------------|
E-|-----------------3---------3---------0-----------0----|

       Ab               Eb/G      Fm9
  y pedirte que me dejes    ver tu rostro en oración
e-|------------------------------------------------|
B-|-----0-------0---0---3--------3--------3-----3--|
G-|-----0-------0---0---2--------0--------0-----0--|
D-|---------------------0--------------------------|
A-|------------------------------------------------|
E-|-----3-----------3---2--------0--------------0--|

     Ab7/Bb  Bb7
Ayer te vi
e-|------0-----|
B-|---3------2-|
G-|---0------0-|
D-|---4--------|
A-|---0------0-|
E-|------------|

CORO:
  Eb/G       Ab        Eb/G           Cm7          Eb7/Bb
 Te vi en un niño de la calle sin un lugar para dormir
e-|---------------------------------------------------|
B-|-3-------0----0------3-----------5p3----3-------3--|
G-|-2-------0----0------2------------------2-------7--|
D-|---------------------------------------------------|
A-|---------------------------------2--------------0--|
E-|-2-------3-----------2-----------------------------|

             Ab         Eb/G          Cm7          Eb7/Bb
Te vi en sus manos extendidas pidiendo pan para vivir
e-|------------------------------------------------------|
B-|----------0----0------3---*--------5p3----3------3--*-|
G-|----------0----0------2---*---------------2------7--*-|
D-|------------------------------------------------------|
A-|-----------------------------------2-------------0----|
E-|----------3-----------2-------------------------------|

             Fm9            Eb/G       Ab
Te vi en sus ojos suplicantes y en su sonrisa titubeante
e-|----------2p0--0------------------------------------|
B-|----------3----3-----3---3---------0----0------0----|
G-|---------------------0---2---------0----0------0----|
D-|----------------------------------------------------|
A-|----------------------------------------------------|
E-|----------0----------0---2---------3-----------3----|

 Ab7/Bb  Bb7
Ayer te vi
e-|----0-----|
B-|--3---0-2-|
G-|--0-----0-|
D-|--4-------|
A-|--0-----0-|
E-|----------|

  Eb/G       Ab            Eb/G        Cm7          Eb7/Bb
Te vi en un cuarto de hospital, en soledad te vi llorar
e-|-------------------------------------------------------|
B-|-3--------0-----0--------3--*-------5p3----3------3--*-|
G-|-2--------0-----0--------2--*--------------2------7--*-|
D-|-------------------------------------------------------|
A-|------------------------------------2-------------0----|
E-|-2--------3--------------2-----------------------------|

             Ab         Eb/G          Cm7          Eb7/Bb
Te vi en el rostro atribulado, de un enfermo deshauciado
e-|----------------------------------------------------|
B-|----------0----0------3----*-------5p3----3------3--|
G-|----------0----0------2----*--------------2------7--|
D-|----------------------------------------------------|
A-|-----------------------------------2-------------0--|
E-|----------3-----------2-----------------------------|

         Db#11(No.7)           Ab7/C
Sin esperanza de vivir cansado de tanto sufrir
e-|----------0--------------------0--------|
B-|-------3-------3------------3--------3--|
G-|-------0----0---------------0-----0-----|
D-|----------------------------------------|
A-|-------3--------------------2-----------|
E-|----------------------------------------|

 Ab7/Bb  Bb7
Ayer te vi
e-|------0-----|
B-|---3------2-|
G-|---0------0-|
D-|---4--------|
A-|---0------0-|
E-|------------|

    Eb                 Bb/Ab         Ab        Fm9
  Ayer te vi          fue más cla...luna en mi no quedaron dudas
e-|----2--2----2--2p0--------------------------------------------|
B-|-3--3--3-----------3-----2-----2---0--*------3----3------3--*-|
G-|-2--------2--------------2-----2---0--*------0----0------0--*-|
D-|-0-----0------------------------------------------------------|
A-|--------------------------------------------------------------|
E-|-------------------------3---------3---------0-----------0----|

        Ab             Eb/G      Fm9
fue una clara aparición    me ha saltado el corazón
e-|------------------------------------------------|
B-|-----0-------0---0---3--------3--------3-----3--|
G-|-----0-------0---0---2--------0--------0-----0--|
D-|---------------------0--------------------------|
A-|------------------------------------------------|
E-|-----3-----------3---2--------0--------------0--|


 Ab7/Bb  Bb7
Cuando te vi
e-|----0--------0-|
B-|--3---0-2--3---|
G-|--0-----0--2---|
D-|--4------------|
A-|--0-----0------|
E-|---------------|

     Eb                          Bb/Ab        Ab
   Ayer te vi             despues de buscarte tanto
e-|--3p2---2----2--2p0--------------------------------|
B-|--3-----------------3----------2---2-------0----*--|
G-|----------2--------------------2---2-------0----*--|
D-|--0------------------------------------------------|
A-|---------------------------------------------------|
E-|-------------------------------3-----------3-------|

      Fm9
Antes de salir el s
Suggest correction
Give kudos to tab author, rate the tab!
1 2 3 4 5
comments
print report bad tab
guest
Wanna post a correction for this tab? Suggest correction