Oops, an error
Loading. Please wait.

Bienaventurado Tab

20 views 1 this week
no commentswrite comment
1 2 3 4 5
3 more votes to show rating
add to favorites
launch autoscroll
font size
0
reset
how to read this tab
guitar tuner
Autoscroll
slow
fast
+/-
esc
set tempo
stop
Help us to improve Ultimate-Guitar.com Take our survey!
×
hola de nuevo aqui esta el solo de Bienaventurado de
Jesus adrian romero,
¡atencion en los tiempos! y queda igualita o eso espero!


e|-------------------------------------------------
B|-----------------------------------12s-15-15-13--
G|------------10-10-10-10h-12-10-10----------------
D|-10s-12-12---------------------------------------
A|-------------------------------------------------
E|-------------------------------------------------


e|---------------------------------------------------
B|---------------------------------------------------
G|-10h-12-10-10h-12--10h-12-10-10h-12-10-12-10-10-10-
D|---------------------------------------------------
A|---------------------------------------------------
E|---------------------------------------------------


e|------------10--10-----------------------------------------
B|-------------------12s-15-12s-15-15-15-13------------------
G|------------------------------------------10s-12-10h-12-10-
D|-----------------------------------------------------------
A|---3-5-3-5-------------------------------------------------
E|-5---------------------------------------------------------


e|-------------------------------------
B|-------------------------------------
G|---10-12s-14-14-14-14-14-14-14-14----
D|-------------------------------------
A|-------------------------------------
E|-------------------------------------

    /*esto tres veces*/
e|--------------------------------------
B|---------------------15---------------
G|--10h-12--10h-12-10-------------------
D|--------------------------------------
A|----------------------------------5---
E|--------------------------1-1-3-------

s= slide
h= hammer

Saludos a la iglesia Cristo el Salvador
Eryda
156
Suggest correction
Give kudos to tab author, rate the tab!
1 2 3 4 5
comments
print report bad tab
guest
You may want to rate the tab now too:
select rating
Wanna post a correction for this tab? Suggest correction