Oops, an error
Loading. Please wait.

Brillo De Mis Ojos Tab

29 views 1 this week
no commentswrite comment
1 2 3 4 5
3 more votes to show rating
add to favorites
launch autoscroll
font size
0
reset
how to read this tab
guitar tuner
×
Best way to learn
"Brillo De Mis Ojos"
Autoscroll
slow
fast
+/-
esc
set tempo
stop
Ola que tal la cancion el brillo de tus ojos una nueva cancion
de Jesus Adrian Romero  la guitarra afinada en E intente hacerlo
de la mejor posible manera ..Espero que sea de mucha bendicion ..
y sea util para la gloria del Señor...

Intro:

   Bm         D           G
e-------------2----2-------------------------
B--3----3----------------0----0-0---0-0------
G----4----4------2---2------0-----0-----0----
D-------------0------------------------------
A--2-----------------------------------------
E------------------------3-------------------

    Bm        D           G
e-------------2----2-----7-7---10-10--9--7---
B--3----3------------------------------------
G----4----4------2---2-----------------------
D-------------0------------------------------
A--2-----------------------------------------
E--------------------------------------------


  Bm         D           G
e-------------2----2-------------------------
B--3----3----------------0----0-0---0-0------
G----4----4------2---2------0-----0-----0----
D-------------0------------------------------
A--2-----------------------------------------
E------------------------3-------------------

    Bm        D           G
e-------------2----2-----7-7---10-10--9--7---
B--3----3------------------------------------
G----4----4------2---2-----------------------
D-------------0------------------------------
A--2-----------------------------------------
E--------------------------------------------


Bm       D              G
 Eres el brillo de mis ojos claridad
Bm              D          G
 lo que a mi mente trae descanso y libertad
Bm         D              G
 guardo silencio y puedo oir en mi interior
Bm       D             G
 esas palabras que me dicen tuyo soy
       Bm-D-G
solo tu
        Bm-D-G
solo tu


Coro:

F#m                A
 eres el agua que quita mi sed
E                        Bm
 que me refresca y me restaura otra vez
F#m                    A
 el que me llena y me da plenitud
E                     Bm--Bm7
 me da descanso y me muestra la luz
       D                      F#m               E   Em
el camino a seguir si es que quiero vivir otra vez
       Bm-D-G
solo tu
       Bm-D-G
solo tu
       Bm-D-G
solo tu
       Bm-D-G
solo tu


Bm       D           G
 Eres el dueño de mi vida eres mi paz
Bm       D             G
 el que completa cada sueño cada plan
Bm        D            G
 Si me faltaras soy un barco sin timon
Bm         D            G
 son tus palabras mi compas mi direccion
              Bm-D-G
solo tu solo tu


GRaciazz  por el Talento q me
distE DiOs !!!!Aqui dEjo uNa
BonitA aLabanZa!!xdxd
Un Saludo  especiAl  para tOdos
lOs JoVeNeS D SaN MaRtIn Pa tOdoS
LoS BrOtHeRz qUe nOs rEuNiMos Los SABADoS
en LA ReU. De jOvEnEs!!!!
eSpErO QuE SeA D MuChA bEnDiCiOn EsTa cxAnCiOn
Ayy lOS DeJo ..DIOS LOS BENDIGAAA!!!!MARANATHA!
pAuL C.!!!!!=)
Suggest correction
Give kudos to tab author, rate the tab!
1 2 3 4 5
comments
print report bad tab
guest
You may want to rate the tab now too:
select rating
Wanna post a correction for this tab? Suggest correction