Oops, an error
Loading. Please wait.

Cada Día Tab

99 views 1 this week
no commentswrite comment
1 2 3 4 5
3 more votes to show rating
add to favorites
launch autoscroll
font size
0
reset
how to read this tab
guitar tuner
Autoscroll
slow
fast
+/-
esc
set tempo
stop
Help us to improve Ultimate-Guitar.com Take our survey!
×
Para empezar vamos hablar del guitarrista de Jesús Adrián Romero
o sea Daniel Fraire muchos saben que toca genial la guitarra
electroacústica pero en casi todas las canciones toca con cejillo o
como lo llaman los mexicanos capo aquí esta la incógnita tienen que
bajarle ½ A LA guitarra  o sea en vez de ser  e-B-G-D-A-E  lo dejan
en eb-Bb-Gb-Db-Ab-Eb para que puedas tocar igual que el.
Cuando bajes ½ tono a la guitarra colocas el cejillo en el 2do espacio.
Si ya colocaste el cejillo olvídate de que esta en el 2do espacio y
desde allí empiezas a contar 1er. Espacio,2do espacio,3er espacio y etc.
Para que puedas hacer los acordes de abajo con el tono que es C#.


  Tono: C#

   Intro:

         C                     G        F
    e|---------------------------------------------|
    B|----------3--1---3s5--3--1---0h1h0-----------|
    G|-------------------------------------2-------|
    D|---2--3--------------------------------------|

         C                       G     F
    e|---------------------------3-----------------|
    B|----------3--1---3s5--3----------------------|
    G|------------------------------4--2-----------|
    D|---2--3--------------------------------------|


Verso.

          C                  G                    Am
       Mi corazón confiado esta porque yo te conozco
             Em                F                G
       Y en medio de la tempestad nunca estoy sola
         C                G                      Am
       Y puedo Tu silueta ver en medio de la niebla
             Em                  F                   G
       Tu Gracia es suficiente en mí si el mundo tiembla

   CORO.
                  C*        FAdd9            Gadd9           Am7
             Cada  día  despierto y Tu misericordia esta conmigo
           e|---------3----------3--------------3------------3------|
           B|-------1--1-------1--1------------0-0----------1--1----|
           G|-----0-----0----2------2---------0----0-------0-----0--|
           D|---2----------3-----------------0------------2---------|
           A|--3-----------------------------------------0----------|
           E|-------------------------------3-----------------------|

                Em7         FAdd9         Gadd9
             Puedo descansar Tu eres el mismo
           e|------3--------3------------3-------------------|
           B|-----0-0-----1--1----------0-0------------------|
           G|----0---0---2-----3-------0---0-----------------|
           D|---2-------3-------------0----------------------|
           A|------------------------------------------------|
           E|--0---------------------3-----------------------|

                   C*         FAdd9           Gadd9         Am7
             Cada día me enseñas a confiar en Ti con Tu Palabra
           e|-------3----------3---------------3------------3------|
           B|-----1--1-------1--1-------------0-0----------1--1----|
           G|---0-----0----2------2----------0----0-------0-----0--|
           D|--2----------3-----------------0------------2---------|
           A|-3-----------------------------------------0----------|
           E|------------------------------3-----------------------|

                Em7           FAdd9        Gadd9
             Mi fe se aumenta más cada mañana.
           e|-------3---------3------------3------------------|
           B|------0-0------1--1----------0-0-----------------|
           G|---- 0---0----2-----3-------0---0----------------|
           D|---2---------3-------------0---------------------|
           A|-------------------------------------------------|
           E|--0-----------------------3----------------------|

                   C*                  Gsus2
             Cada día.
           e|------3---3----3----------3----3----------|
           B|-----1--1---1------------3-3--------------|
           G|----0----0----0---------0---0-------------|
           D|---2-------------------0------------------|
           A|--3---------------------------------------|
           E|----------------------3-------------------|


          (Se repite el verso nuevamente y 2 veces el coro)

    Ahora cuando cantes el coro tienes que hacer esta tablatura
    Escucha bien la alabanza para que puedas tocarla en el tiempo exacto
    Tócala tal cual como esta abajo

    CORO.
                     C*                         FAdd9
               Cada dia?
                         e|------------------|
                         B|--1---3---5-------|
                         G|------------------|
                         D|--2---3---5-------|

     Cada vez que cantes (Cada día?)
     tienes que repetir la tablatura de arriba.


                                Acordes.
C = X32010   G = 320003   F = 133211   Am = X02210   Em = 022000
  C* = X32013   Fadd9 = XX3213   Gadd9 = 300003   Am7 = X02013
                    Em7 = 020003   Gsus2 = 300033


  CADA DIA QUE PASA MI AMOR POR TI CRECE MUCHO MAS
  CADA DIA QUE PASA ME CONVENSO MAS QUE SIN TI NO PUEDO VIVIR
  TE AMO MI BOMBONCITO..FALTAN POCOS MESES PARA QUE SEAMOS UNO SOLO..
Suggest correction
Give kudos to tab author, rate the tab!
1 2 3 4 5
comments
print report bad tab
guest
You may want to rate the tab now too:
select rating
Wanna post a correction for this tab? Suggest correction