Oops, an error
Loading. Please wait.

Cada Mañana Chords

version 2
version 2

Whole song

83 views 1 this week
no commentswrite comment
1 2 3 4 5
2 more votes to show rating
add to favorites
launch autoscroll
font size
0
reset
transpose
0
reset
simplify chords
display chords
guitar tuner
Autoscroll
slow
fast
+/-
esc
set tempo
stop
Help us to improve Ultimate-Guitar.com Take our survey!
×
Introducción:

/ D9 / G / D D9 / D9~E9 <- *

      D9           G            D    D9     [D9~~~~E9]<- *
e||------------|------------|------------|------------|
B||---------3--|---------3--|---------3--|---------3--|
G||------2-----|------2-----|------2-----|------2-----|
D||---4--------|---5--------|---4--------|---5--------|
A||------------|------------|------------|------------|
E||------------|------------|------------|------------|

Estrofa: (x2)

D        G             A   A9  G  [D9-D-D9]<- **
  Cada mañana al despertar,
         G              A   A9
y por la noche al descansar,
    Bm7          A          Em7
agradezco tus bondades a mi vida
    G                 A           D   (A  G)<- ***
por todo lo que me permites disfrutar.


Coro: (x2)

    G  A Bm7     G A Bm7     G A Bm7
Ale-lu-u-ya, Alelu-u-ya, Alelu-u-ya.
 G           A             D    (A  G  D A G)<- ****
Agradecido estoy por tu bondad.


Estrofa (x2)

Coro (x5)

 G           A             D   A G
Agradecido estoy por tu bondad.        [x2]


Final:

      D  A  G      D  A  G      D  A  G      D  A  G      [D9-D]<- **
e||------------|------------|------------|------------|------------|
B||------------|------------|------------|---------3--|------------|
G||------2-----|------2-----|------2-----|------2-----|------------|
D||---4-----5--|---4-----5--|---4-----5--|---4--------|------------|
A||------------|------------|------------|------------|------------|
E||------------|------------|------------|------------|------------|


Leyenda:

*    = Arrastre de 1 posición a otra
**   = Acorde partido
***  = No se toca al pasar al Coro
**** = Sólo se toca al pasar a la Estrofa
Suggest correction
Give kudos to tab author, rate the tab!
1 2 3 4 5
comments
print report bad tab
guest
You may want to rate the tab now too:
select rating
Wanna post a correction for this tab? Suggest correction