Oops, an error
Loading. Please wait.

Cantad Alegres Tab

59 views 1 this week
no commentswrite comment
1 2 3 4 5
3 more votes to show rating
add to favorites
launch autoscroll
font size
0
reset
how to read this tab
guitar tuner
Autoscroll
slow
fast
+/-
esc
set tempo
stop
Help us to improve Ultimate-Guitar.com Take our survey!
×
Riff intro y estrofa
-------------------------------
-------------------------------
8---10----8---10-----13--13----
X---X--- X---X------X---X------
6----8----6----8------11--11---
-------------------------------

Puente antes del solo, se toca durante el solo,
pero mas lento, apenas, creo. Antes del solo lo toca una guitarra,
 y durante el solo, el bajo.
-----------------------------------------------------------------------
-----------------------------------------------------------------------
-----------------------------------------------------------------------
-----------------6---------------------------8h10p8\(6)----------------
8--6--8--6--8----5-----------8--6--8---------------------8------4----6-
-----------------------------------------------------------------------

Solo. Esta es mi interpretación
-------------------------------------------------------------------
11b(13)11 *----------------------------------------------11vv------
------------------13-10/(13)-10vv---------------10-13--------------
------------------------------------------ --10-13-----------------
-------------------------------------------------------------------
-------------------------------------------------------------------

11-------------------------------------11/(13)\(11)---
13?11/(13) repite este fraseo**-----------------------
------------------------------------------------------
------------------------------------------------------
------------------------------------------------------
------------------------------------------------------

18b(20)*---18---16------------------------13***-----------------------
-------------------------18---16-----------16b-repite 3 veces ?16p13--
----------------------------------------------------------------------
----------------------------------------------------------------------
----------------------------------------------------------------------
----------------------------------------------------------------------

Final
-------------------------
-------------------------
3--1---------------------
-------3--1--------------
--------------3-1--------
------------------4-1----

* Estiras en 11, y vas tocando la cuerda varias veces
y a la vez bajando el estirado, es un poco difícil de explicar,
pero si escuchas te vas a dar cuenta.
** Este mismo se repite luego antes de cantar
por ultima vez el coro.
*** Estiras el 16, y cuando esta estirado tocas el 13 de la primera,
si queres poder hacerlo muteando la 2da antes de tocar la primera,
pero creo que no hace eso, aunque queda bien, por si te cuesta estirar
full ahí.
Suggest correction
Give kudos to tab author, rate the tab!
1 2 3 4 5
comments
print report bad tab
guest
You may want to rate the tab now too:
select rating
Wanna post a correction for this tab? Suggest correction