Oops, an error
Loading. Please wait.

Celebraré Tu Amor Tab

version 1
version 1

Whole song

12 views 1 this week
no commentswrite comment
1 2 3 4 5
3 more votes to show rating
add to favorites
launch autoscroll
font size
0
reset
how to read this tab
guitar tuner
×
Best way to learn
"Celebraré Tu Amor"
Autoscroll
slow
fast
+/-
esc
set tempo
stop
(INTRO)

E-----12-10-9----------9----
B--10---------12-10-12---10-
G---------------------------
D---------------------------
A---------------------------
E---------------------------

E-----12-10-9-----------
B--10---------12-10-12--
G-----------------------
D-----------------------
A-----------------------
E-----------------------

E-----12-10-9----------9----
B--10---------12-10-12---10-
G---------------------------
D---------------------------
A---------------------------
E---------------------------

E----------9-10-9----------
B-------10--------10h12p10-
G-9h11---------------------
D--------------------------
A--------------------------
E--------------------------


E-------------------------
B-2S5----------------------
G-------------------------

(INTERMEDIO) después del segundo coro, el solo
se hace dos veces

* ESTO ES UN GOLPE SECO STACATO

B-----------------------------------------
G--------------------------------------------5H7P5-
D--5H7-7*-7*-7*-7*-5H7* -5H7-7*-7*-7*-7*--5H7--------
A-----------------------------------------
E-----------------------------------------

E----------------------------
B----------------------------
G-----------------------------
D--5H7-7*-7*-7*-7*-5H7*--5H7-7*-7*-7*-9--
A-------------------------------------7--
E----------------------------


GUITARRA II ESTO VA EN EL SOLO MU SUAVE CASI NI SE CIENTE

E---------------------------------------
B----------------------------------------
G---------------------------------------
D-5S7-X-7-7-X--7------------------------- 2 VECES
A-5S7-X-7-7-X--7--------------------------


G---------9------------------------------------
D-5S7-X-X-9-------------------------------------
A-5S7-X-X--------------------------------------
Suggest correction
Give kudos to tab author, rate the tab!
1 2 3 4 5
comments
print report bad tab
guest
You may want to rate the tab now too:
select rating
Wanna post a correction for this tab? Suggest correction