Oops, an error
Loading. Please wait.

Celebraré Tu Amor Bass

version 1
version 1

Whole song

17 views 1 this week
no commentswrite comment
1 2 3 4 5
3 more votes to show rating
add to favorites
launch autoscroll
font size
0
reset
guitar tuner
×
Best way to learn
"Celebraré Tu Amor"
Autoscroll
slow
fast
+/-
esc
set tempo
stop
CELEBRARÉ TU AMOR

(INTRODUCCIÓN)

G-------------------------
D-------------------------
A----------5--5-7-7-5---
E------5-5----------------

G---------------------
D---------------------
A---------5---5-7-7--
E-----5-5-------------

G---------------------
D---------------------
A------5--5-7-7-5---
E--5-5----------------

G-------------------------
D--------------------------
A----------5-5-0------7--
E-5-5---5--------5-------


(ESTROFA)

G----------------------------------
D----------------------------------
A--------------4-4---5-5----7---
E------5-5------------------------   (X2)

(PRE-CORO) NOTA:  C#m

G---------------------------------
D---------------------------------
A-------4----4-4-----2-4-------
E-------------------4-------------

NOTA: F#m

G------------------------
D------------------------
A------------------------
E-----2---2-2---0-2----

NOTA: D

G---------------------
D---------------------
A--5----5-5----3-5-
E-------------5-------

(CORO) igual que la introducción,
sólo que en la 3ra parte es distinto, así:

G-----------------------------
D-----------------------------
A---------4-4---5---5-7-----
E------------------------------ (x2)

Luego la estrofa igual,
pero en la primara parte del PRE-CORO cambia un poquito

C#m

D--------------------
A-----4---2-2-3-4--
E---------------------
Suggest correction
Give kudos to tab author, rate the tab!
1 2 3 4 5
comments
print report bad tab
guest
You may want to rate the tab now too:
select rating
Wanna post a correction for this tab? Suggest correction