Oops, an error
Loading. Please wait.

Celebraré Tu Amor Bass

version 2
version 2

Whole song

45 views 1 this week
no commentswrite comment
1 2 3 4 5
3 more votes to show rating
add to favorites
launch autoscroll
font size
0
reset
guitar tuner
×
Best way to learn
"Celebraré Tu Amor"
Autoscroll
slow
fast
+/-
esc
set tempo
stop
CELEBRARÉ TU AMOR

Intro
E|--5-5-|------|-----|-------|
A|------|-5--5-|-7-7-|-5--5--|
D|------|------|-----|-------|
G|------|------|-----|-------|

E|--5-5-|------|-----|----------|
A|------|-5--5-|-7-7-|-5/7-7-7--|
D|------|------|-----|----------|
G|------|------|-----|----------|

E|--5-5-|------|------|-------|
A|------|-5--5-|-/7-7-|-5--5--|
D|------|------|------|-------|
G|------|------|------|-------|

E|--5-5-|-5-----|-----------|----------|
A|------|--5--7-|-5/7-5-5-5-|-5-5-5-5--|
D|------|-------|-----------|----------|
G|------|-------|-----------|----------|

VERSO
Inconparable
E|--5-5-|-5-----|-------|-------|-5----|
A|------|---4-4-|-4-5-5-|-5-7-7-|---7--|
D|------|-------|-------|-------|------|
G|------|-------|-------|-------|------|

Tu me abrazaste
E|--5-5-|-5-----|-------|-------|-5h7----|
A|------|---4-4-|-4-5-5-|-5-7-7-|-----7--|
D|------|-------|-------|-------|--------|
G|------|-------|-------|-------|--------|

Tu amor me alimenta
E|----------|-22------|----5--------|-5----------|
A|--44-42-2-|----42-2-|-55--3/5-77--|--3/5-7(6)--|
D|-------2--|------2--|-------------|------------|
G|----------|---------|-------------|------------|

CORO x2
Celebrare tu amor
E|--5-5-|-----|-----|--------|
A|------|-5-5-|-7-7-|--75-5--|x3
D|------|-----|-----|--------|
G|------|-----|-----|--------|

Celebrare tu amor
E|----|-----|-----|----------|
A|--4-|-5-5-|-7-7-|-7-5h7-5--|
D|----|-----|-----|----------|
G|----|-----|-----|----------|
esta parte se repite al repetir el coro

SE REPITE DESDE EL VERSO

En el solo de guitarra se empieza
E|--5--|
A|-----|
D|-----|
G|-----|

Celebrare tu amor y tu misericordia
E|--5-|-3-5-|-5---|-5--|-5-----|------|
A|----|-----|---5-|----|---5h7-|-757--|
D|----|-----|-----|----|-------|------|
G|----|-----|-----|----|-------|------|

Celebrare tu amor y tu misericordia
E|--5-|-3-5-|-5---5--|-5--|-5-----|------|
A|----|-----|---5--5-|----|---5h7-|-757--|
D|----|-----|--------|----|-------|------|
G|----|-----|--------|----|-------|------|

Celebrare tu amor y tu misericordia
E|--5-|-3-5-|-5---|---5-|-5-----|------|
A|----|-----|---5-|-5---|---5h7-|-757--|
D|----|-----|-----|-----|-------|------|
G|----|-----|-----|-----|-------|------|

CORO

FIN
E|--5-5-5-5-|-5-5-5--------------------|
A|----------|-------5h7-5h7------------|
D|----------|---------------5h7-5-5h7--|
G|----------|--------------------------|

E|--5-5-5-5-|-5-5-5--5---5------|
A|----------|---------5---7-----|
D|----------|----------------7--|
G|----------|-------------------|

atte miauricio gatolar
Suggest correction
Give kudos to tab author, rate the tab!
1 2 3 4 5
comments
print report bad tab
guest
You may want to rate the tab now too:
select rating
Wanna post a correction for this tab? Suggest correction