Oops, an error
Loading. Please wait.

Cerca De Jesús Tab

version 1
version 1

Whole song

35 views 1 this week
no commentswrite comment
1 2 3 4 5
3 more votes to show rating
add to favorites
launch autoscroll
font size
0
reset
how to read this tab
guitar tuner
Autoscroll
slow
fast
+/-
esc
set tempo
stop
Help us to improve Ultimate-Guitar.com Take our survey!
×
hola amigos
aqui les dejo una sencilla transcripcion de
esta hermosa cancion de jesus adrian
romero espero que les guste
suenan muy bien las notas del piano
transportadas a la guitarra
manemartin@
p.d. si alguien tiene las notas de
cerca como el habla, incluida en la edicion
especial de el brillo de mis ojos por
favor envienmelas.


Cerca de jesus
Jesus adrian romero
El brillo de mis ojos
2.010

intro
e--10-10-9-9-12-12-10-9-10-9--10-10-9-9----------
B----------------------------------------10------

e--10-10-9-9-12-12-10-9-10-9--10-10-9-9----------
B----------------------------------------10------

Estrofa 1

(Se arpegia sobre D)

e----------0-0-----------------------------
B--3-3-2-2-----3-2-3-2--3-3-2-2------------
G--------------------------------2---------
(se repite este arpegio en la estrofa inicial)

En mi caminar, en mi diario andar

Cerca de Jesús quiero siempre estar

En mi despertar y en mi descansar

Cerca de Jesús me quiero encontrar

Coro
G               F#m
Cerca de Jesús, cerca de Jesus
Bm                             Asus4 A D/F#
No hay otro lugar donde quiero estar
G               F#m
Cerca de Jesus, cerca de Jesus
Em            Asus4 A G        //D  G//
Quiero siempre estar cerca de Jesus


e--10-10-9-9-12-12-10-9-10-9--10-10-9-9----------
B----------------------------------------10------

e--10-10-9-9-12-12-10-9-10-9--10-10-9-9----------
B----------------------------------------10------


Estrofa 2.

e----------0-0-----------------------------
B--3-3-2-2-----3-2-3-2--3-3-2-2------------
G--------------------------------2---------
(se repite este arpegio en la segunda estrofa)

Cuando llegue el fin, de mi vida aqui

Cerca de Jesus quiero yo morir

Y al llegar alla a la eternidad

Cerca de Jesus quiero yo habitar

Coro
G               F#m
Cerca de Jesús, cerca de Jesus
Bm                             Asus4 A D/F#
No hay otro lugar donde quiero estar
G               F#m
Cerca de Jesus, cerca de Jesus
Em            Asus4 A G        //D  G//
Quiero siempre estar cerca de Jesus

G               F#m
Cerca de Jesús, cerca de Jesus
Bm                             Asus4 A D/F#
No hay otro lugar donde quiero estar
G               F#m
Cerca de Jesus, cerca de Jesus
Em            Asus4 A G        //D  G//
Quiero siempre estar cerca de Jesus


e--10-10-9-9-12-12-10-9-10-9--10-10-9-9----------
B----------------------------------------10------

e--10-10-9-9-12-12-10-9-10-9--10-10-9-9----------
B----------------------------------------10------
Suggest correction
Give kudos to tab author, rate the tab!
1 2 3 4 5
comments
print report bad tab
guest
You may want to rate the tab now too:
select rating
Wanna post a correction for this tab? Suggest correction