Oops, an error
Loading. Please wait.

Cerca De Jesús Tab

version 2
version 2

Whole song

31 views 1 this week
no commentswrite comment
1 2 3 4 5
3 more votes to show rating
add to favorites
×
Save as Personal and add changes to this tab that will be seen only by you. Learn more ›
×
You can save this tab as Personal to edit and correct it or add notes. All changes will be seen only by you. Learn more »
save as personal
new!
launch autoscroll
font size
0
reset
how to read this tab
guitar tuner
Autoscroll
slow
fast
+/-
esc
set tempo
stop
intro: se repite dos veces

1--10--10-9--9-12--12-9--9-10-9-10--10-9--9----
2----10----10----10----10---------10----10--10-
3-------------------------------0--------------
4--0-------------------------------------------

estrofas:se repite


1------------0--0------------------------------0--0---------
2--3--3-2--2-----2-2-3-2---3-3-2--2----3-3-2-2-----2-2-3-2--
3---2----2----2---2---------2---2--2----2---2---2---2-------
4--0--------------------------------------------------------
5--------------------------------------2--------------------
6--------------------------3--------------------------------

1------------                        1----------------2---3--
2--3-3-2--2--     para entrar al     2--3-3-2--2-----3-3---3-
3---2---2--2-     coro se hace esto  3---2---2--2---2---2----
4------------                        4-------------0---------
5--0---------                        5--0--------------------
6------------                        6-----------------------


CORO:se repite
    G                 F#m                Bm 4veces
1 --3--3--3---3-------2--2--2---2--------2-------------0----
2 --3--3--3-----3-----2--2--2-----2------3---------2-2--2---
3 --4--4--4-------4---2--2--2-------2----4---------4-4---4--
4 --5--5--5------5-5--4--4--4------4-4---4---------2-2------
5 --5--5--5----5------4--4--4----4-------2---------0--------
6 --3--3--3--3--------2--2--2--2---------2------------------


1 ----0----0-2--
2 --2--2---3--3-
3 --2------2----
4 --2------0----
5 --0-----------
6
Suggest correction
Give kudos to tab author, rate the tab!
1 2 3 4 5
comments
print report bad tab
guest
Wanna post a correction for this tab? Suggest correction