Oops, an error
Loading. Please wait.

Como Bufalo Bass

version 1
version 1

Whole song

Interactive

98 views 3 this week
no commentswrite comment
1 2 3 4 5
3 more votes to show rating
add to favorites
launch autoscroll
font size
0
reset
guitar tuner
×
Best way to learn
"Como Bufalo"
Autoscroll
slow
fast
+/-
esc
set tempo
stop
TODA LA GLORIA SEA PARA EL SEÑOR!!!!!

INTRO
G|---------------------------------------------------------|
D|---------------------------------------------------------|
A|----1--3-3-------1--3-3--3-------1--3-3-------1--1/3--1--|
E|-3-3-------1--3-3----------1--3-3-------1--3-3-----------|

G|--------------------------------------------------------------------|
D|--------------------------------------------------------------------|
A|----1--3-3-------1--3-3--3-------1--3-3----------1--3--3/5--3--1--3-|
E|-3-3-------1--3-3---------1--3-3-------1--3-3--3--------------------|

VERSOS
G|---------------------------------------------------------------------|
D|---------------------------------------------------------------------|
A|--------1--3-3----------1--3-3---3---------1--3-3---------1-3-3-5--3-|
E|---3-3----------1--3-3-------------1--3-3----------1--3-3------------|

G|--------------------------------------|
D|--------------------------------------|
A|--------1--3-3-----------1--1/3--1----|
E|---3-3----------1--3-3----------------|

G|----------------------------------------------------------------------|
D|----------------------------------------------------------------------|
A|--------1--3-3----------1--3-3---3---------1--3-3---------1-3-3-5--3--|
E|---3-3----------1--3-3-------------1--3-3----------1--3-3-------------|

G|---------------------------------------5-----|
D|-----------------------------------------5---|
A|--------1--3-3----------------1-3-5----------|
E|---3-3----------1/3---1-2--3-----------------|

CORO (x2)
G|-----------------------------------|- 2/3----------------2/3----------|
D|--3/5----------------3/5-----------|----------------------------------|
A|---------------3/5-----------------|-1---1--1-1-----1--1------1-----1-|
E|-3----3--1-2-3-----3-----3--1-2-3--|------------1-3-------------1-3---|

G|----------------------------------------------|
D|-----------------1-1---1*1--------------------|
A|---3-3---3*3-----------------3-3---0---5------|
E|----------------------------------------------|

PUENTE 1
G|----------------------------------------------------------------5-|
D|------------------------------------------------------------------|
A|--------1--3-3----------1--3-3---3---------1--3-3---------1?3*3---|
E|---3-3----------1--3-3-------------1--3-3----------1--3-3---------|


VERSO

CORO(X2)

PUENTE 2
G|----------|----------|-----------------------------------------|
D|----------|----------|-----------------------------------------|
A|----1-3<--|----1-3<--|----1--3-3--------1--3-3--------1--3-/5--|
E|-3-3------|-3-3------|-3-3-------1--3-3--------1--3-3----------|

CORTE 1 (Sube ½ Tono)
G|------------------------------------------------------------------|
D|------------------------------------------------------------------|(X2)
A|--------2--4-4------------2--4-4---4---------2-4-4-------2--2/4-2-|
E|---4-4-----------2--4-4---------------2--4-4-------2-4-4----------|

G|-----------------------------------------------------------------------|
D|-----------------------------------------------------------------------|
A|--------2--4-4------------2--4-4---4----------2--4-4----------2--4-5-6-|
E|---4-4-----------2--4-4---------------2--4-4----------2--4-4-----------|

==> RAP <==

CORO (x2)  -Medio Tono Arriba-
G|----------------------------------|---3/4-----------------3/4-----------|
D|--4/6---------------4/6-----------|-------------------------------------|
A|---------------4/6----------------|--2----2--2-2-----2--2-----2-----2---|
E|-4----4--2-3-4-----4----4--2-3-4--|--------------2-4------------2-4-----|

G|-----------------------------------------------|
D|-----------------2-2---2*2--------------1------|
A|---4-4---4*4-----------------4-4----1----------|
E|-----------------------------------------------|

FINAL
G|----------------------------------------------------------------------|
D|---------------------------------------------------------6*6----------|
A|--------2--4-4------------2--4-4-------------2--4--5--6---------------|
E|---4-4-----------2--4-4-------------2--2/4----------------------------|

¡¡ESPERO LE APROVECHEN!!!!

APOSENTO ALTO VENECIA, BOGOTA, COLOMBIA.
CELD

---------------------------------------------------------------------------
Suggest correction
Give kudos to tab author, rate the tab!
1 2 3 4 5
comments
print report bad tab
guest
You may want to rate the tab now too:
select rating
Wanna post a correction for this tab? Suggest correction