Oops, an error
Loading. Please wait.

Como La Brisa Tab

version 2
version 2

Whole song

70 views 1 this week
no commentswrite comment
1 2 3 4 5
3 more votes to show rating
add to favorites
launch autoscroll
font size
0
reset
how to read this tab
guitar tuner
Autoscroll
slow
fast
+/-
esc
set tempo
stop
Help us to improve Ultimate-Guitar.com Take our survey!
×
Final Riff, tocando por Kiko Cibrian en el tono de A:

E|------------------10-------------------------------
B|--10--12-14-----10--10s12b------10--------------10-
G|--------------11-------------------9s11b-----------
D|---------------------------7--7------------7--7----
A|-----------------------------7--------------7------
E|---------------------------------------------------

E|------------------10-------------------------------
B|--10--12-14-----10--10s12b------10-----------------
G|--------------11--------------------------9s11s9s7-
D|---------------------------7--7----7---------------
A|-----------------------------7---------------------
E|---------------------------------------------------

Mi version 
Suggest correction
Give kudos to tab author, rate the tab!
1 2 3 4 5
comments
print report bad tab
guest
You may want to rate the tab now too:
select rating
Wanna post a correction for this tab? Suggest correction