Oops, an error
Loading. Please wait.

Con Manos Vacias Tab

130 views 3 this week
no commentswrite comment
1 2 3 4 5
3 more votes to show rating
add to favorites
×
Save as Personal and add changes to this tab that will be seen only by you. Learn more ›
×
You can save this tab as Personal to edit and correct it or add notes. All changes will be seen only by you. Learn more »
save as personal
new!
launch autoscroll
font size
0
reset
how to read this tab
guitar tuner
Autoscroll
slow
fast
+/-
esc
set tempo
stop
e---3---3-5-7-5-3-0-3---5-3---3-5-7-5-3-0-3---5-3---3-5-7-5-3-0-3--
B------------------------------------------------------------------
G------------------------------------------------------------------
D------------------------------------------------------------------
A------------------------------------------------------------------
E------------------------------------------------------------------


e--10--8--7--5--3------------
B---------------3------------
G---------------0------------
D---------------0------------
A---------------2------------
E---------------3------------


   G                 C    
   Con manos vacías vengo a Ti
   D        Cdim      Em   
   no tengo nada que darte.
   Am                   Em
   No hay nada de valor en mí
   C                 D
   no puedo impresionarte.
   G                      C                        
   Te puedo entregar, mi corazon 
   D         Cdim    Em            
   pero esta quebrantado,
   Am                Em                    
   Recibelo mi buen pastor,
   C                D              
   Tu puedes restaurarlo


   C         D                   Em
   Pongo mi vida a tu servicio Señor,
   C        D                    Em
   no será mucho pero la entrego hoy,
   C         D                 Em
   y si mis manos hoy vacías están,
   C          B7           Em      D      C
   puedes llenarlas con tu gran poder y amor.
     D              Em    (G)
    Usa mis manos Señor
     
          FINAL
      D               Em  
    //Usa mis manos Señor//
     Em
   //Usa mis manos
     C
     Usa mis manos
      D               Em
     Usa mis manos Señor//   
     
      EN LA ULTIMA VEZ    (D  Y  G)

NOTA: ESTE EL FINAL QUE YO LE DOY
Despues del G de la ultima parte, terminando Señor, pueden
hacer un arreglo para terminar, que es muy fácil y
suena muy bien

e------3---------------3-2s3-------3----3-------
B-------------3-----1-------------3------3------
G----0------0-----0--------------0--------0-----
D-------------------------------0----------0----
A--3-----2------0--------------2------------2---
E-----------------------------3--------------3--
                                    
            DE 6° A 1° DESPACIO       DE 1° A 6°RÁPIDO
                                      
Cdim  E----2------
      B----1------
      G----2------
      D----1------
      A----X------
      E----X------
Suggest correction
Give kudos to tab author, rate the tab!
1 2 3 4 5
comments
print report bad tab
guest
Wanna post a correction for this tab? Suggest correction