Oops, an error
Loading. Please wait.

Con Mi Dios Bass

version 1
version 1

Whole song

Interactive

52 views 1 this week
no commentswrite comment
1 2 3 4 5
2 more votes to show rating
add to favorites
launch autoscroll
font size
0
reset
guitar tuner
Autoscroll
slow
fast
+/-
esc
set tempo
stop
Hola chavos...Esta rola me cautivo desde que la oi pero nunka
la habia podido sacar..
asi que aki etsa mi version del bajepo que es un 98% seguro
por unos detallitos alfinal..

Disfrutenla y haganla sonasr bien....!
slaudos desde coatza...y mi correo es: bggs15@
Dudas conmentarios,felicitaciones osn bienvenidos...!

DLB hermanos!!

Atte: Jorge


Con mi Dios
Intro:


G -------------------------------------------------
D ?2-2-0-2-----------------2-2-0-2-----------------
A ----------------2h5p2--------------------2h5p2---
E ---------3h5p3--------------------3h5p3----------

G -----------------------------------            x2
D ?2-2-0-2---------------------------
A -----------------2h5p2-------------
E ----------3h5p3--------------------


G -----------------------------------2h4p2-------------------
D ?2-2-0-2-----------------2-2-0-2----------0-2h5----5-2-----
A -----------------2h5p2-------------------------------------
E ----------3h5p3--------------------------------------------


   Em   D                       C
G ------------------------------------------------
D ?2-2-0-2-----------------2-2-0-2----------------
A ----------------2h5p2--------------------2h5p2--
E ---------3h5p3--------------------3h5p3---------


G -----------------------------------           x2
D ?2-2-0-2---------------------------
A -----------------2h5p2-------------
E ----------3h5p3--------------------


    Em   D                  C    C       D
G --------------------------------------------2~--------------
D ?2-2-0-2-----------------2-2------2-5--0-4------------------
A ----------------2h5p2----------3----------------------------
E ---------3h5p3----------------------------------------------


  Em   D                       C
G -------------------------------------------------
D ?2-2-0-2-----------------2-2-0-2-----------------
A ----------------2h5p2--------------------2h5p2---
E ---------3h5p3--------------------3h5p3----------

G -----------------------------------                  x2
D ?2-2-0-2---------------------------
A -----------------2h5p2-------------
E ----------3h5p3--------------------


   Em   D                  C             D
G ----------------------------------------------
D ?2-2-0-2-----------------2-2-0-2~~-----5-5~---
A ----------------2h5p2--------------3~~--------
E ---------3h5p3--------------------------------


Verso:
    Em   D                  Em   D
G ------------------------------------------------
D ?2-2-0-2-----------------2-2-0-2----------------
A ----------------2h5p2--------------------2h5p2--
E ---------3h5p3--------------------3h5p3---------

   Em    D                                         x2
G -----------------------------------
D ?2-2-0-2---------------------------
A -----------------2h5p2-------------
E ----------3h5p3--------------------


    Em   C       D
G --------------------2~--------------
D ?2-2------2-5--0-4------------------
A -------3----------------------------
E ------------------------------------


    Em   D                  Em   D
G ------------------------------------------------
D ?2-2-0-2-----------------2-2-0-2----------------
A ----------------2h5p2--------------------2h5p2--
E ---------3h5p3--------------------3h5p3---------

   Em    D                                        x2
G -----------------------------------
D ?2-2-0-2---------------------------
A -----------------2h5p2-------------
E ----------3h5p3--------------------


    Em                                  D
G -------------------------------------------
D ?2-2-0-2-Esto se toca para entrar al coro---4-5--
A -------------------------------------------
E -------------------------------------------


Coro:

      G      D/F#   Em
G -------------------------------------------
D ?---5-5-5--4-4-4--2-2-2--2-2-2-------------
A -------------------------------------------
E -------------------------------------------

     D                    Em
G ---------------------------------------------
D ?--------------------------------------------
A ---5-5-5?-5-5-5-----5---7-7-5----------------
E ------------------7---7-------7?0~-----------

     D     G               D     G
G ---------------------------------------------
D ?----4-4s5-4-2-0?0s5-2-----4-4s5-4-2-0-0s5-2-
A ---5---------------------5-------------------
E ---------------------------------------------
    B     Em         Am   B
G ---------------------------------------------
D ?------------------------------s/9-9 s-------
A --2--5--7------------------------------------
E ----------0~-0h2h3-5-5--7-7~-----------------

    Em    C     D
G ---------------------------------------------
D ?-2-2----------------------------------------
A ---------3----5------------------------------
E -------3----5--------------------------------

Verso:
Coro:
Solo:
Verso:
Final:

    Em              Am      B
G ---------------------------------------------
D ?-2-2--------------------------- s/9-9 s-----   x2
A --------0-0-2-3-5s7------s9-------------------
E --------------------5-5~----7~----------------
      C         D          Em
G --------------------2-------------------------
D ?------2--5---0--4------2-2~------------------
A ----3-----------------------------------------
E ----------------------------------------------

Bueno ahi separe las que se repiten dos veces..ahi chekenlo

Oiganla bien por que se oye muy al fondo....
bueno disfrutenla yq ue sea de bendiciones para ustedes..
bye bye-..-

"ALgun dia no nos vera," mTxxx
Suggest correction
Give kudos to tab author, rate the tab!
1 2 3 4 5
comments
print report bad tab
guest
Wanna post a correction for this tab? Suggest correction