Oops, an error
Loading. Please wait.

Con Voz De Mando Bass

64 views 1 this week
no commentswrite comment
1 2 3 4 5
3 more votes to show rating
add to favorites
×
Save as Personal and add changes to this tab that will be seen only by you. Learn more ›
×
You can save this tab as Personal to edit and correct it or add notes. All changes will be seen only by you. Learn more »
save as personal
new!
launch autoscroll
font size
0
reset
guitar tuner
Autoscroll
slow
fast
+/-
esc
set tempo
stop
:Intro:   'h' = hammer ; 's' = slide

                x 3 veces
G] :--------------:---------------------:
D] :-5-7-5---2-4-2:----2----------------:
A] :--------------:4-5----0-2-2-0-0-----:
E] :--------------:------------------2-0:
B] :--------------:---------------------:

G] :---------------------:-----------------:
D] :-5-7-5---2-4-2-------:-----------------:
A] :---------------------:-----------------:
E] :----------------5-5-7:-5s--------------:
B] :---------------------:-----------------:

:Estrofas:

Con voz de mando...

G] :-----------------:-------------:--------------:------------:
D] :---7-------------:----7-------7:--------------:---7--------:
A] :------------7h-9-:------7------:----------7h-9:----7-------:
E] :5-----5-5--------:5-------5----:5---5-5-------:5----5-----5:
B] :-----------------:-------------:--------------:------------:

la voz...

G] :---------------:-----------:-------------:---------:
D] :---------------:-----------:-------------:-----7---:
A] :5----5--5------:5--5---5---:---------7h-9:---------:
E] :---5--5----5h-7:-----5----5:5---5-5------:5-----5-5:
B] :---------------:-----------:-------------:---------:

Los muertos en Cristo...

G] :-----------------:-------------:--------------:-------------:
D] :-----------------:----7-------7:--------------:---------7---:
A] :------------7h-9-:------7------:----------7h-9:-------------:
E] :5-----5-5--------:5-------5----:5---5-5-------:5---5-5-----5:
B] :-----------------:-------------:--------------:-------------:

Nos levantara...

G] :--------------:-----------:-------------:-------------:
D] :--------------:-----------:-------------:---------7---:
A] :5---5--5------:5--5---5s--:---------7h-9:-------------:
E] :----------5h-7:-----------:5---5-5------:5---5-5-----5:
B] :--------------:-----------:-------------:-------------:

:Coro:

Y en una nube...

G] :--------------:--------------:--------------:--------------:
D] :--------------:-----------4--:--------------:--------------:
A] :-------------2:---------4---4:-------------2:--------------:
E] :0---0-0-2-3---:2---2-2-------:0---0-0-2-3---:2---2----0-2-5:
B] :--------------:--------------:--------------:-------2------:

Al cordero inmolado...

G] :--------------:----------:---------:--------------:
D] :--------------:----------:---------:--------------:
A] :2--2-4-5---4-5:7--7------:2---2-4-5:7--7----------:
E] :--------------:-----7-0-0:---------:-----7-0-0-0-0:
B] :--------------:----------:---------:--------------:

Le veremos...

G] :---------:-----:
D] :---------:-----:
A] :---5-----:-----:
E] :2-----5-6:7s---:
B] :---------:-----:

:Intro:
:Estrofas:
:3 golpes de instumentos antes de 'Los muertos...':

E] :2-3-4:

:Estrofas:
:Coro:
:Coro (coro dice ah, ah, ah...!):

Y en una nube...

G] :--------------:------------:-------------:-----------:
D] :--------------:------------:-------------:-----------:
A] :--------------:------------:-------------:-----------:
E] :0---0---0----0:---2-0-2-0-2:0---0---0---0:--2-0-2-5-2:
B] :------2----2--:------------:------2---2--:-----------:

Al cordero inmolado...

G] :------------:--------------:--------:--------:
D] :------------:--------------:--------:--------:
A] :--2--2--5--5:7-------------:2-2-5---:7-7-----:
E] :------------:---0--0---0--0:-------3:-----0-0:
B] :------------:--------------:--------:--------:

:Coro:
:Se repitr frase 'le veremos tal cual es...':(x3)
:Intro:
:Golpes de Instrumentos:

G] :------------:--------:--:
D] :------------:--------:--:
A] :------------:--------:--:
E] :2-3-4-5--5-3:5-5-----:5s:
B] :------------:--------:--:
Suggest correction
Give kudos to tab author, rate the tab!
1 2 3 4 5
comments
print report bad tab
guest
Wanna post a correction for this tab? Suggest correction