Oops, an error
Loading. Please wait.

Crece Más Mi Amor Por Tí Tab

22 views 1 this week
no commentswrite comment
1 2 3 4 5
3 more votes to show rating
add to favorites
×
Save as Personal and add changes to this tab that will be seen only by you. Learn more ›
×
You can save this tab as Personal to edit and correct it or add notes. All changes will be seen only by you. Learn more »
save as personal
new!
launch autoscroll
font size
0
reset
how to read this tab
guitar tuner
Autoscroll
slow
fast
+/-
esc
set tempo
stop
 *Hola Dios les bendiga:
  Esta cancion en realidad es muy sencilla a
  la par de otras composiciones
  De la banda de jesus adrian romero,
  ojala les guste cualquier duda al
  Correo 
 *nota: primeramente esta canción y esta
  tablatura la hice colocando
  Un capo o una cejilla en el 2do traste a partir de hay cuenta
  La tablatura, la X en la tab significa que apaga*

Intro:
  *1er melodía o arpegio

 F#m9      Dadd2      C#7sus4  C#m7 Dadd2     D    Dmaj7
e-4--------5--------------------------------------------
b-0-----0-----5--------7--7-------5--5---------3--x--0--
g----0--------0-----0-----4----4-----0-----0---0--x--0--
d----------------4-----------6----------4---------------
a-4-----------5-----------4----------5---------5--x---5-
E--------------------------------------------------------

 *2da melodia  o arpegio

 F#m9        Dadd2      C#7sus4  C#m7 Bsus4    Bm   Baad2
e--4--------5---------------------------------------------
b--0-----0-----5--------7--7--------5--5---------3--x--0--
g-----0--------0-----0-----4-----4-----4-----4---4--x--4--
d-----------------4-----------6-----------4---------------
a--4-----------5-----------4-----------0---------0--x--0--
E----------------------------------------------------------


*Nota: en la estrofa se hace la segunda melodía o arpegio*

  F#m                 D
// entre mas estoy contigo y te respiro
    C#m                  Bm
    Mas mi amor crece por ti mas te admiro
  F#m               D
   Conocer de tu bondad me ha convencido
   C#m               Bm
   Mas preciado que oro es ser tu amigo //    x 2

Coro:

F#m      D    E           C#m          F#m
Crece mas mi amor por ti, cada vez que veo la cruz
   D          E           C#m             F#m
Crece mas mi amor por ti, cada vez que te veo venir

   D          E           C#m         F#m
Crece mas mi amor por ti, cada vez que veo la cruz
  D                  C#m
Crece mas  mi amor por ti

Interludio:

 *1er melodia o arpegio

F#m9      Dadd2      C#7sus4  C#m7 Dadd2     D    Dmaj7
e-4--------5--------------------------------------------
b-0-----0-----5--------7--7-------5--5---------3--x--0--
g----0--------0-----0-----4----4-----0-----0---0--x--0--
d----------------4-----------6----------4---------------
a-4-----------5-----------4----------5---------5--x---5-
E--------------------------------------------------------

 *2da melodia  o arpegio

 F#m9        Dadd2      C#7sus4  C#m7 Bsus4    Bm   Baad2
e--4--------5---------------------------------------------
b--0-----0-----5--------7--7--------5--5---------3--x--0--
g-----0--------0-----0-----4-----4-----4-----4---4--x--4--
d-----------------4-----------6-----------4---------------
a--4-----------5-----------4-----------0---------0--x--0--
E----------------------------------------------------------

Estrofa 1 vez,luego coro y después este puente:

C#7                             F#m
Puedo multiplicar lo que ahora siento por ti
E#°7                             F#m
Puedo mi tiempo dar en alabanzas sin fin
C#7                            F#m
Puedo por siempre estar a tu servicio
        E             D               C#7-C#7sus4-(E#°7)opcional
Y no se aproximara  a lo que hiciste por mi

F#m    D      E           C#m          F#m
Crece mas mi amor por ti, cada vez que veo la cruz
  D           E           C#m             F#m
Crece mas mi amor por ti, cada vez que te veo venir

  D           E           C#m          F#m
Crece mas mi amor por ti, cada vez que veo la cruz
  D                  C#m
Crece mas  mi amor por ti

Outro:

 *1er melodia o arpegio

 F#m9      Dadd2      C#7sus4  C#m7 Dadd2     D    Dmaj7
e-4--------5--------------------------------------------
b-0-----0-----5--------7--7-------5--5---------3--x--0--
g----0--------0-----0-----4----4-----0-----0---0--x--0--
d----------------4-----------6----------4---------------
a-4-----------5-----------4----------5---------5--x---5-
E--------------------------------------------------------

 *2da melodia  o arpegio

 F#m9        Dadd2      C#7sus4  C#m7 Bsus4    Bm   Baad2
e--4--------5---------------------------------------------
b--0-----0-----5--------7--7--------5--5---------3--x--0--
g-----0--------0-----0-----4-----4-----4-----4---4--x--4--
d-----------------4-----------6-----------4---------------
a--4-----------5-----------4-----------0---------0--x--0--
E----------------------------------------------------------
Acordes usados en el coro y puente:

  F#m   D   C#m   Bm   E   C#7   E#°7   C#7sus4
e  2    2    4     2   4    4     4        4
B  2    3    5     3   5    6     3        7
G  2    2    6     4   4    4     4        4
D  4    4    6     4   2    6     3        6
A  4    5    4     2   2    4     2        4
E  2    2    4     2   2    4     2        4
Suggest correction
Give kudos to tab author, rate the tab!
1 2 3 4 5
comments
print report bad tab
guest
Wanna post a correction for this tab? Suggest correction