Oops, an error
Loading. Please wait.

Cuenta Conmigo Tab

version 2
version 2

Whole song

Interactive

37 views 1 this week
no commentswrite comment
1 2 3 4 5
3 more votes to show rating
add to favorites
×
Save as Personal and add changes to this tab that will be seen only by you. Learn more ›
×
You can save this tab as Personal to edit and correct it or add notes. All changes will be seen only by you. Learn more »
save as personal
new!
launch autoscroll
font size
0
reset
how to read this tab
guitar tuner
Autoscroll
slow
fast
+/-
esc
set tempo
stop
Author
Unregistered
Intro.
Solo guitarra

A-8----8-----8-6---6------6-8----8-------8-6------------6-6/8
D--6----6--6----5----5---5-----6----6---6-----5--6/8-6-8-----
G----5---5--------5----5---------5----5--------5-------------
B---------------------------------------------------------

Fm                   G#                  Eb

E-------------------------------------------------------
A------------8---------10---------11~~~-11--11--10--11--
D-10-8-10---10-8-10---10-8-10--10/11--10--10---8--10
G-------------------------------------------------------
B-------------------------------------------------------

Fm                   G#                  Eb

E-------------------------------------------------------
A-----------8----------10--------10/11--10-10-8--8-
D-10-8-10---10-8-10----10-8-10-8/10--8--8--6--6
G--------------------------------------------------------
B--------------------------------------------------------


Fm                  G#
//Desde que salga el sol

       B--------4/6-
 Eb    E---8-6/4---- Fm
Hasta que vuelva la luna
                   G#
De donde ahora estoy
         Eb
Y hasta el último rincón
      Fm
Del mundo
            G#
No importa la ocasión
        Eb
Si tú me necesitas
C#maj7
Dispuesto estoy a ir
        Eb
y obedecer//


       Fm
Cuenta conmigo para ir
G#               Eb
Aunque no vuelva a regresar
       Fm
Cuenta conmigo para ir
G#              Eb
Hasta no poder respirar
         C#
A donde me quieras llevar
                   Eb
Siempre en las filas me hallaras
C#
Conmigo tu puedes contar
            Eb
En cualquier lugar
               Fm            G#                 Eb
Cuenta conmigo

 E--------------------------------------------------
 A------------8---------10--------11~~~-11-11-10-11-
 D-10-8-10---10-8-10---10-8-10-10/11-10-10--8--10
 G--------------------------------------------------
 B---------------------------------------------------

cuenta conmigo Fm         G#                     Eb

 E---------------------------------------------------
 A------------8---------10--------10/11-10-10-8--8-
 D-10-8-10---10-8-10----10-8-10-8/10--8-8--6--6
 G---------------------------------------------------
 B---------------------------------------------------


Fm                    G#
Si tarde has de llamar

    B------4/6-
Eb  E-8-6/4----  Fm
Eso ya no me incomoda
                  G#
Mis planes son de ti
        Eb
Mis poemas mi canción
       Fm
Mis horas
            G#
No importa la ocasión
        Eb
Si tu me necesitas
C#maj7
Dispuesto estoy a ir
        Eb
Y obedecer

     Fm
//Cuenta conmigo para ir
G#                   Eb
Aunque no vuelva a regresar
       Fm
Cuenta conmigo para ir
G#                   Eb
Hasta no poder respirar
         C#
A donde me quieras llevar
                   Eb
Siempre en las filas me hallaras
C#
Conmigo tu puedes contar
            Eb
En cualquier lugar //


Fm               Eb             Fm                Eb
E-------------------------------------------------------------
A-8---8------8-6----6------6-8-----8------8-6------------6-6/8-
D---6---6--6-----5----5--5-----6-----6---6----5---6/8-6-8------
G-----5---5-------5----5---------5-----5--------5--------------
B--------------------------------------------------------------
e-------------------------------------------------------------


Fm                   G#                  Eb

E----------------------------------------------
A---------8---------10--------11~~~-11-11-10-11
D-10-8-10---10-8-10---10-8-10-10/11-10-10-8--10
G----------------------------------------------
B----------------------------------------------
e----------------------------------------------

Fm                   G#                  Eb
E--------------------------------------------
A---------8---------10--------10/11-10-10-8-8
D-10-8-10---10-8-10----10-8-10-8/10--8-8--6-6
G--------------------------------------------
B--------------------------------------------
e--------------------------------------------

final SE MANTIENE Fm Y AL FINAL LA GUITARRA ELECTRICA
 ASE ESTO. Y ACUSTICA (Eb Fm)
D-----------------
G--5-5-5--3-3/5-
B--6-6-6--4-4/6-
e----------------

ATT... DAVID          "EL_GATO"
Suggest correction
Give kudos to tab author, rate the tab!
1 2 3 4 5
comments
print report bad tab
guest
Wanna post a correction for this tab? Suggest correction