Oops, an error
Loading. Please wait.

Cuenta Conmigo Tab

version 3
version 3

Whole song

Interactive

85 views 1 this week
no commentswrite comment
1 2 3 4 5
3 more votes to show rating
add to favorites
×
Save as Personal and add changes to this tab that will be seen only by you. Learn more ›
×
You can save this tab as Personal to edit and correct it or add notes. All changes will be seen only by you. Learn more »
save as personal
new!
launch autoscroll
font size
0
reset
how to read this tab
guitar tuner
Autoscroll
slow
fast
+/-
esc
set tempo
stop
Author
Unregistered
HOLA A TODOS, BUENO ESTA ES UNA CORRECCION DE LA ANTERIOR,LA OTRA
ESTABA BIEN SOLO QUE LAS NOTAS PARA ENTRAR AL CORO ERAN OTRAS BUENO
AQUI LES MANDO ESTA TRANSCRIPCION


Intro.
Solo guitarra

E---------------------------------------------------------------------
A-8---8-------8-6----6-------6-8-----8-------8-6----------------------
D---6---6---6-----5----5---5-----6-----6---6------5------------------3
G-----5---5---------5----5---------5-----5----------5--3/5-3--1/3-1---
B---------------------------------------------------------------------
e---------------------------------------------------------------------

Solo guitarra eléctrica y empieza acústica    ~=debe de seguir sonando

Fm                   G#                  Eb

E----------------------------------------------
A----------------------------------------------
D--------3--------3---------5/6-5-5-3-5--------
G--5-3-5----5-3-5----5-3-5--5/6-5-5-3-5--------
B----------------------------------------------
e----------------------------------------------

Fm                   G#                  Eb
E--------------------------------------------
A--------------------------------------------
D--------3--------3---------5-3-3-1-1--------
G--5-3-5----5-3-5----5-3-5--5-3-3-1-1--------
B--------------------------------------------
e--------------------------------------------


Fm                    G#
//Desde que salga el sol

         D#        B-----6-4-4/6--      Fm
                   e---8----------
Hasta que vuelva la luna

                   G#
De donde ahora estoy
         D#
Y hasta el último rincón
              Fm
Del mundo
            G#
No importa la ocasión
        D#
Si tú me necesitas

C#maj7
Dispuesto estoy a ir
        Cm
y obedecer//


       Fm
Cuenta conmigo para ir
G#               D#
Aunque no vuelva a regresar
       Fm
Cuenta conmigo para ir
G#              D#
Hasta no poder respirar
         C#
A donde me quieras llevar
                   Cm
Siempre en las filas me hallaras
         Bbm
Conmigo tu puedes contar
            Cm
En cualquier lugar

cuenta conmigo

E----------------------------------------------
A----------------------------------------------
D--------3--------3---------5/6-5-5-3-5--------
G--5-3-5----5-3-5----5-3-5--5/6-5-5-3-5--------
B----------------------------------------------
e----------------------------------------------

Fm                   G#                  D#
E--------------------------------------------
A--------------------------------------------
D--------3--------3---------5-3-3-1-1--------
G--5-3-5----5-3-5----5-3-5--5-3-3-1-1--------
B--------------------------------------------
e--------------------------------------------


Fm                    G#
Si tarde has de llamar

          D#        B-----6-4-4/6--      Fm
                    e---8----------

Eso ya no me incomoda
                  G#
Mis planes son de ti


        D#
Mis poemas mi canción

             Fm
Mis horas
            G#
No importa la ocasión
        D#
Si tu me necesitas
C#maj7
Dispuesto estoy a ir
        D#
Y obedecer


       Fm
Cuenta conmigo para ir
G#               D#
Aunque no vuelva a regresar
       Fm
Cuenta conmigo para ir
G#              D#
Hasta no poder respirar
         C#
A donde me quieras llevar
                   Cm
Siempre en las filas me hallaras
         Bbm
Conmigo tu puedes contar
            Cm
En cualquier lugar

cuenta conmigo


Fm               D#             Fm                D#
E---------------------------------------------------------------------
A-8---8-------8-6----6-------6-8-----8-------8-6----------------6-6/8-
D---6---6---6-----5----5---5-----6-----6---6------5-----6/8-6-8-------
G-----5---5---------5----5---------5-----5----------5-----------------
B---------------------------------------------------------------------
e---------------------------------------------------------------------


Fm                   G#                  D#

E----------------------------------------------
A---------8---------10--------11~~~-11-11-10-11
D-10-8-10---10-8-10---10-8-10-10/11-10-10-8--10
G----------------------------------------------
B----------------------------------------------
e----------------------------------------------

Fm                   G#                  D#
E--------------------------------------------
A---------8---------10--------10/11-10-10-8-8
D-10-8-10---10-8-10----10-8-10-8/10--8-8--6-6
G--------------------------------------------
B--------------------------------------------
e--------------------------------------------

final SE MANTIENE Fm Y AL FINAL LA GUITARRA ELECTRICA
 ASE ESTO. Y ACUSTICA (D# Fm)
E---------------
A---------------
D---------------
G--5-5-5--3-3/5-
B--6-6-6--4-4/6-
e---------------

C#maj7= EADGBe      Eb=EADGBe
        x46564         x68866
Suggest correction
Give kudos to tab author, rate the tab!
1 2 3 4 5
comments
print report bad tab
guest
Wanna post a correction for this tab? Suggest correction