Oops, an error
Loading. Please wait.

Dame Este Monte Tab

60 views 1 this week
no commentswrite comment
1 2 3 4 5
3 more votes to show rating
add to favorites
launch autoscroll
font size
0
reset
how to read this tab
guitar tuner
×
Best way to learn
"Dame Este Monte"
Autoscroll
slow
fast
+/-
esc
set tempo
stop
  ojala les guste y este bien

 cualquier duda:

 intro: (LA INTRO LLEVA CAPO O CEJILLA EN EL PRIMER TRASTE)

 e--------4--------------------------4------------
 b------4---4-6-------4---0---4--------4-6-2-0----
 g----0-------------0---0---3---0--------------3--
 d------------------------------------------------
 a------------------------------------------------
 E-4--------------4----------------4--------------

     G#                                D#
 Que se ha pasado el tiempo y que los años
                       Fm
 marcan mi cara,que mi voz ha cambiado
                D#
 que no es el mismo mi caminar,
  C#          A#m    C#                  G#-G#sus4- G#
 que malgaste mis fuerzas que en vanidades las deje ir
                     C#                D#
 que diga no amis sueños que se ha pasado mi mes de abril

 CORO:
 G#                C#               D#              G#-G#sus4-G#
   Pero dame este monte y con mis fuerzas lo he de tomar
                C#                D#          Fm
 cumplire la promesa yo he sido creado para luchar
             C#                 D#
 no habra gigante que ha haga dudar
        C#   D#
 y mi banderaaa he de alzar

 interludio:

 e-------4------------------4------------------
 b-----4---4-6------4---0-4---4-s-6-4---4-2-0--
 g---0------------0---0------------------------
 d--------------------------------------------
 a--------------------------------------------
 E-4------------4-----------------------------
   G#                                 D#
 Hay quienes me aconsejan que toque ahora la retirada
  Fm                                 D#
 que lo que hizo el joven jamas el viejo conseguira
  C#          A#m       C#           G#m G#sus4-  G#
 que el tren se me ha pasado que deberia ya decistir
  C#                                D#
 que ya no estoy a tiempo que mi carrera llego a su fin

 CORO:
 G#               C#                D#           G#-G#sus4-G#
 Pero dame este monte y con mis fuerzas lo he de tomar
                C#                D#          Fm
 cumplire la promesa yo ha sido creado para luchar
             C#                 D#
 no habra gigante que me haga dudar
        C#   D#          G#-G#sus4-G#
 y mi banderaaa he de alzar           X2

 (La 2da vuelta no mete esto G#-G#sus4-G#)

 outro:

 e---------4----0------------4----------------
 b-4----------4-0--4-----------4--2-----------
 g------0---------------0---------0-----------
 d----0---------------0-----------------------
 a--------------4-----------------------------
 E-4---------------4--------------------------
Suggest correction
Give kudos to tab author, rate the tab!
1 2 3 4 5
comments
print report bad tab
guest
You may want to rate the tab now too:
select rating
Wanna post a correction for this tab? Suggest correction