Oops, an error
Loading. Please wait.

De Ti Dependo Tab

version 2
version 2

Whole song

16 views 1 this week
no commentswrite comment
1 2 3 4 5
3 more votes to show rating
add to favorites
launch autoscroll
font size
0
reset
how to read this tab
guitar tuner
Autoscroll
slow
fast
+/-
esc
set tempo
stop
Help us to improve Ultimate-Guitar.com Take our survey!
×
 intro:

 e------------------------------4-4-p--6-4--------4-4-p-6-4------
 b-7-6-----7-6---------4-----4-------------7----4------------7-7-
 g------6-------6-4-6-----6-------------------6------------------


 final:

 e------------------------------4-4-p--6-4--------4-4-p-6-4------
 b-7-6-----7-6---------4-----4-------------7----4------------7-7-
 g------6-------6-4-6-----6-------------------6------------------

 e------------------------------4-4-p--6-4--------4-4-p-6-4------
 b-7-6-----7-6---------4-----4-------------7----4------------7-7-
 g------6-------6-4-6-----6-------------------6------------------


  este punteo es el de la electrica


 |que Dios los bendiga¡
Suggest correction
Give kudos to tab author, rate the tab!
1 2 3 4 5
comments
print report bad tab
guest
You may want to rate the tab now too:
select rating
Wanna post a correction for this tab? Suggest correction