Oops, an error
Loading. Please wait.

El Aire De Tu Casa Tab

version 1
version 1

Whole song

52 views 1 this week
no commentswrite comment
1 2 3 4 5
3 more votes to show rating
add to favorites
launch autoscroll
font size
0
reset
how to read this tab
guitar tuner
Autoscroll
slow
fast
+/-
esc
set tempo
stop
Help us to improve Ultimate-Guitar.com Take our survey!
×
INTRO CAPO EN EL PRIMER TRASTE

E------------------------------------------------------
B--4-4-4---4h6p4---4--1-1-1---1h2p1--1-----------------
G--1-1-1-1-------1----1-1-1-1-------1------------------
D--5-5-5--------------3-3-3----------------------------
A------6--------------4---4----------------------------
E--1---------------------------------------------------


E------------------------------------------------------
B--4-4-4---4h6p4---4--1-4-1----------------------------
G--1-1-1-1-------1----1-3-1----------------------------
D--5-5-5--------------3-3-3----------------------------
A------6--------------4-4-4----------------------------
E--1----------------------------------------------------


(Estos son los acordes originales de la canción)

  Fm9              Eb(add4)    Db
Suggest correction
Give kudos to tab author, rate the tab!
1 2 3 4 5
comments
print report bad tab
guest
You may want to rate the tab now too:
select rating
Wanna post a correction for this tab? Suggest correction