Oops, an error
Loading. Please wait.

El Aire De Tu Casa Tab

version 3
version 3

Whole song

130 views 1 this week
no commentswrite comment
1 2 3 4 5
1 last vote to show rating
add to favorites
launch autoscroll
font size
0
reset
how to read this tab
guitar tuner
×
Best way to learn
"El Aire De Tu Casa"
Autoscroll
slow
fast
+/-
esc
set tempo
stop
Capo
1st fret
30/Diciembre/2013/Lunes

¡Acordes Originales!
((Click en Calidad))

Capo 1er Traste
A:Apagado-Es un golpe apagado con la mano, los dedos o el puño.
          (Te sugiero que uses los dedos)
g:Golpe-Es un golpe fuerte con el dedo que pisará la cuerda
        para marcar la nota entrante.

--Pratica primero los acordes--

   Bm7/E   Dadd9   Cmaj7
1|---x-------x-------x-------
2|---3-------3-------0-------
3|---0-------0-------0-------
4|---4-------4-------2-------
5|---x-------5-------3-------
6|---0-------x-------x-------


Intro y Versos:

    Bm7/E       Dadd9                  Cmaj7
1|------------|----x-----------------|------------------------------
2|----3--3--A------3------3h5h3--------0--0--A-----0------0h1h0-----
3|----0--0--A------0----0-------0------0--0--A-----0----0-------0---
4|----4--4--A------4--4-----------4----2--2--A-2g--2--2-----------2-
5|----------A--5g--5-------------------3-----A-----3----------------
6|----0-----x-|----------------------|-------x----------------------

    Bm7/E       Dadd9                  Cmaj7
1|------------|----x-----------------|------------------------------
2|----3--3--A------3------3h5h3--------0--x--A-----0----------------
3|----0--0--A------0----0-------0------0--2--A-----0----------------
4|----4--4--A------4--4-----------4----2--2--A-2g--2----------------
5|----------A--5g--5-------------------3-----A-----3----------------
6|----0-----x-|----------------------|-------x----------------------

  Bm7/E            Dadd9       Cmaj7
Quiero respirar el aire de tu casa,
                    Bm7/E  Dadd9              Cmaj7
Disfrutar de tu fragancia       y llenarme de Ti
  Bm7/E                 Dadd9           Cmaj7
Quiero en Tu presencia estar todos los días
                  Bm7/E  Dadd9         Cmaj7
Y llenarte de alegría         en tu jardín


--Coro--

Practica primero los acordes
   G  Am7  D/B  Am7/C
1|-3---0----0-----x-----
2|-0---1----3-----x-----
3|-0---0----2-----2-----
4|-0---2----0-----2-----
5|-2---0----2-----3-----
6|-3--------------------

   G              Am7          Cmaj7      Dadd9
Quiero estar tan cerca que te pueda respirar,
  D/B                  Cmaj7       Am/C  Cmaj7
Y un solo latido pueda yo        escu   char...

   G              Am7          Cmaj7       Dadd9
Quiero estar tan cerca que te pueda yo tocar,
  D/B                 Cmaj7   Am/C  Cmaj7
Y que tu pureza pueda yo     imi    tar
   Am7              Cmaj7
Quiero ser Tu amigo,    quiero estar Contigo...

Intro:

    Bm7/E       Dadd9                  Cmaj7
1|------------|----x-----------------|------------------------------
2|----3--3--A------3------3h5h3--------0--0--A-----0------0h1h0-----
3|----0--0--A------0----0-------0------0--0--A-----0----0-------0---
4|----4--4--A------4--4-----------4----2--2--A-2g--2--2-----------2-
5|----------A--5g--5-------------------3-----A-----3----------------
6|----0-----x-|----------------------|-------x----------------------

    Bm7/E       Dadd9                  Cmaj7
1|------------|----x-----------------|------------------------------
2|----3--3--A------3------3h5h3--------0--x--A-----0----------------
3|----0--0--A------0----0-------0------0--2--A-----0----------------
4|----4--4--A------4--4-----------4----2--2--A-2g--2----------------
5|----------A--5g--5-------------------3-----A-----3----------------
6|----0-----x-|----------------------|-------x----------------------

--Versos--
  Bm7/E           Dadd9        Cmaj7
Quiero navegar el mar de tu mirada
                     Bm7/E                Cmaj7
Y saber que no abra nada que me aparte de Ti...

  Bm7/E             Dadd9       Cmaj7
Quiero caminar siguiéndote los pasos
                    Bm7/E                  Cmaj7
Y aprender en tu regazo lo que esperas de mí...


--Coro--
   G              Am7          Cmaj7      Dadd9
Quiero estar tan cerca que te pueda respirar,
  D/B                  Cmaj7       Am/C  Cmaj7
Y un solo latido pueda yo        escu   char...

   G              Am7          Cmaj7       Dadd9
Quiero estar tan cerca que te pueda yo tocar,
  D/B                 Cmaj7   Am/C  Cmaj7
Y que tu pureza pueda yo     imi    tar
   Am7              Cmaj7
Quiero ser Tu amigo,    quiero estar Contigo...

Intro:

    Bm7/E       Dadd9                  Cmaj7
1|------------|----x-----------------|------------------------------
2|----3--3--A------3------3h5h3--------0--0--A-----0------0h1h0-----
3|----0--0--A------0----0-------0------0--0--A-----0----0-------0---
4|----4--4--A------4--4-----------4----2--2--A-2g--2--2-----------2-
5|----------A--5g--5-------------------3-----A-----3----------------
6|----0-----x-|----------------------|-------x----------------------

    Bm7/E       Dadd9                  Cmaj7
1|------------|----x-----------------|------------------------------
2|----3--3--A------3------3h5h3--------0--x--A-----0----------------
3|----0--0--A------0----0-------0------0--2--A-----0----------------
4|----4--4--A------4--4-----------4----2--2--A-2g--2----------------
5|----------A--5g--5-------------------3-----A-----3----------------
6|----0-----x-|----------------------|-------x----------------------

--Coro--
   G              Am7          Cmaj7      Dadd9
Quiero estar tan cerca que te pueda respirar,
  D/B                  Cmaj7       Am/C  Cmaj7
Y un solo latido pueda yo        escu   char...

   G              Am7          Cmaj7       Dadd9
Quiero estar tan cerca que te pueda yo tocar,
  D/B                 Cmaj7   Am/C  Cmaj7
Y que tu pureza pueda yo     imi    tar
   Am7              Cmaj7
Quiero ser Tu amigo,    quiero estar Contigo... x2

Final:

    Bm7/E       Dadd9                  Cmaj7
1|------------|----x-----------------|------------------------------
2|----3--3--A------3------3h5h3--------0--0--A-----0------0h1h0-----
3|----0--0--A------0----0-------0------0--0--A-----0----0-------0---
4|----4--4--A------4--4-----------4----2--2--A-2g--2--2-----------2-
5|----------A--5g--5-------------------3-----A-----3----------------
6|----0-----x-|----------------------|-------x----------------------

         Quiero estar contigo...
    Bm7/E       Dadd9                  Cmaj7
1|------------|----x-----------------|------------------------------
2|----3--3--A------3------3h5h3--------0--x--A-----0----------------
3|----0--0--A------0----0-------0------0--2--A-----0----------------
4|----4--4--A------4--4-----------4----2--2--A-2g--2----------------
5|----------A--5g--5-------------------3-----A-----3----------------
6|----0-----x-|----------------------|-------x----------------------

         Quiero estar contigo...
    Bm7/E       Dadd9                  Cmaj7
1|------------|----x-----------------|------------------------------
2|----3--3--A------3------3h5h3--------0--0--A-----0------0h1h0-----
3|----0--0--A------0----0-------0------0--0--A-----0----0-------0---
4|----4--4--A------4--4-----------4----2--2--A-2g--2--2-----------2-
5|----------A--5g--5-------------------3-----A-----3----------------
6|----0-----x-|----------------------|-------x----------------------

         Quiero estar contigo...
    Bm7/E       Dadd9                  Cmaj7
1|------------|----x-----------------|------------------------------
2|----3--3--A------3------3h5h3--------0--x--A-----0----------------
3|----0--0--A------0----0-------0------0--2--A-----0----------------
4|----4--4--A------4--4-----------4----2--2--A-2g--2----------------
5|----------A--5g--5-------------------3-----A-----3----------------
6|----0-----x-|----------------------|-------x----------------------

Si tienes duda agregame

Saludos desde Chiapas-México
Suggest correction
Give kudos to tab author, rate the tab!
1 2 3 4 5
comments
print report bad tab
guest
You may want to rate the tab now too:
select rating
Wanna post a correction for this tab? Suggest correction