Oops, an error
Loading. Please wait.

El Aire De Tu Casa Bass

94 views 1 this week
no commentswrite comment
1 2 3 4 5
3 more votes to show rating
add to favorites
×
Save as Personal and add changes to this tab that will be seen only by you. Learn more ›
×
You can save this tab as Personal to edit and correct it or add notes. All changes will be seen only by you. Learn more »
save as personal
new!
launch autoscroll
font size
0
reset
guitar tuner
Autoscroll
slow
fast
+/-
esc
set tempo
stop
Hola que tal soy josue de nuevo y esta vez les traigo la tablatura
para bajo electrico de esta cancion que es muy buena:

AFINACION: G D A E
Intro: "Quiero respirar el aire de tu casa..."
G |---------------------------------------------|
D |---------------------------------------------|
A |---------------------------------------------|
E |---------------------------------------------|

   "Quiero en tu presencia estar todos los dias    y llenarte
G |--/15----------------------13-----------11-11----------------
D |-----------------15----------------------------13------------
A |-------------------------------------------------------------
E |-------------------------------------------------------------

    de alegria       en tu jardin"
G |---------15----13--------------11-----|
D |--------------------------------------|
A |--------------------------------------|
E |--------------------------------------|

    "Quiero estar tan cerca que te pueda respirar    y un solo latido
G |------------------------------------------------------------------|
D |--------------------8------------11----10------10-----------------|
A |----11--------------------------------------7-----10-10-----------|
E |------------------------------------------------------------------|

     pueda  yo escuchar,  quiero estar tan cerca que te pueda yo
G |----8------------------------------------------------11----10---
D |------10s11-----------------------------8-----------------------
A |-------------------------11-------------------------------------
E |----------------------------------------------------------------

    tocar,      y que tu puresa pueda yo imitar,    quiero ser tu
G |--------10---------------------8----------------------------------
D |----------10-10-----------------10s11-------10-8------------------
A |----11------------------------------------------------------------
E |------------------------------------------------------------------
B |------------------------------------------------------------------

    amigo,   quiero estar contigo" (1:09) y se hace 2 veces la figura
G |------------------------------------------------------------------|
D |--------11------------------------------6-------------------------|
A |------------------------------------6h8---6--4-4--4---------------|
E |------------------------------------------------------------------|

Esta es un poco de la simbologia que utilizo en las tablaturas:

= Slide desde el primer traste hasta el marcado en la tab.
(En pocas palabras slide hacia arriba)
h= Tecnica del hammer on
s= Slide

para la cancion pueden seguir simplemente los tonos del cancionero
o bien los que ya tienen publicados en esta pagina.
espero que les pueda servir y alguna duda, comentario o problema
mandenme un mail a mi correo: soyfangh@

Que dios los bendiga y seguire aportando mas canciones para ustedes.
Suggest correction
Give kudos to tab author, rate the tab!
1 2 3 4 5
comments
print report bad tab
guest
Wanna post a correction for this tab? Suggest correction