Oops, an error
Loading. Please wait.

El Brillo De Mis Ojos Bass Tab

version 1
version 1

Whole song

Interactive

35 views 1 this week
no commentswrite comment
1 2 3 4 5
3 more votes to show rating
add to favorites
launch autoscroll
font size
0
reset
guitar tuner
Autoscroll
slow
fast
+/-
esc
set tempo
stop
Help us to improve Ultimate-Guitar.com Take our survey!
×
bueno les voy a enceñar este tema que es facil en el bajo,

Intro: 0:08seg
G|--------------------------------
D|---5s9--------------------------
A|--------------10---------------- x2
E|-------10-10--------------------

Verso 1:''eres el brillo...''
G|--------------------
D|---9----------------
A|-----------10------- x4
E|-----10-10----------

Verso 2:''solo tu...'''
G|-------------------------------------
D|-------------------------------------
A|--2-2-2-2-5-5-5-5--------------------
E|------------------3-3-3-3-3-3-3------

Verso 1
Verso 2
Coro:''eres el agua...''
G|----------------------------------------------------------------
D|--4(8)--7(6)------------4(8)-7(6)-------------------4(8)-7(6)---
A|-------------7(8)--2(6)-----------7(8)-2(6)-5(10)------------7--
E|----------------------------------------------------------------

Verso 2
Verso 1
Verso 2
Coro x2
Verso 2


esa es la cancion espero que les sea de ayuda!
cualquier consulta/sugerencia les dejo mi mail
bassesmen@ saludos de argentina!
Suggest correction
Give kudos to tab author, rate the tab!
1 2 3 4 5
comments
print report bad tab
guest
You may want to rate the tab now too:
select rating
Wanna post a correction for this tab? Suggest correction