Oops, an error
Loading. Please wait.

El Brillo De Mis Ojos Tab

version 1
version 1

Whole song

Interactive

93 views 1 this week
no commentswrite comment
1 2 3 4 5
3 more votes to show rating
add to favorites
×
Save as Personal and add changes to this tab that will be seen only by you. Learn more ›
×
You can save this tab as Personal to edit and correct it or add notes. All changes will be seen only by you. Learn more »
save as personal
new!
launch autoscroll
font size
0
reset
how to read this tab
guitar tuner
Autoscroll
slow
fast
+/-
esc
set tempo
stop
Bueno, para tocar bien el himno tienen que colocar
el capo en el 2do. traste ( desde ahi cuenta la intro)

Bueno les coloco la intro en guitarra ( aunque es en piano)

Intro:
   Bm        D      G               Bm      D       G
e-|----------0---1--------------------------0---0---5--5-8--8-7-5-|
B-|-1---1----1---0------------------1---1---1---1-----------------|
G-|-2---2------------2---2-2---2-2--2---2-------------------------|
D-|---2---2----2---2---3--------------2---2---2---2---------------|
A-|-0--------3---------------3------0-------3---------------------|
E-|------------------1--------------------------------------------|


Bm        D           G
  Eres el brillo de mis ojos claridad
Bm             D             G
  lo que a mi mente trae descanso y libertad
Bm           D              G
  Guardas silencio y puedo oir en mi interior
Bm        D             G
  esas palabras que me dicen tuyo soy
       Bm  D   G
  Solo tu,
       Bm  D   G
  Solo tu


Bm        D           G
  Eres el brillo de mis ojos claridad
Bm             D             G
  lo que a mi mente trae descanso y libertad
Bm           D              G
  Guardas silencio y puedo oir en mi interior
Bm        D             G
  esas palabras que me dicen tuyo soy
       Bm  D   G
  Solo tu,
       Bm  D   G
  Solo tu

CORO:

F#m                 A
  Eres el agua que quita mi sed
E                         Bm
  que me refresca y me restaura otra vez
F#m                  A
  El que me llena me da plenitud
E                     Bm
  Me da descanso y me muestra la luz
     D                         F#m
El camino a seguir si es que quiero vivir
      E    Em
Otra vez


      Bm        D      G               Bm      D       G
Solo tu                           Solo tu
   e-|----------0---1--------------------------0---0---5--5-8--8-7-5-|
   B-|-1---1----1---0------------------1---1---1---1-----------------|
   G-|-2---2------------2---2-2---2-2--2---2-------------------------|
   D-|---2---2----2---2---3--------------2---2---2---2---------------|
   A-|-0--------3---------------3------0-------3---------------------|
   E-|------------------1--------------------------------------------|


      Bm        D      G               Bm      D       G
Solo tu                             Solo tu
   e-|----------0---1--------------------------0---0---5--5-8--8-7-5-|
   B-|-1---1----1---0------------------1---1---1---1-----------------|
   G-|-2---2------------2---2-2---2-2--2---2-------------------------|
   D-|---2---2----2---2---3--------------2---2---2---2---------------|
   A-|-0--------3---------------3------0-------3---------------------|
   E-|------------------1--------------------------------------------|

Bm         D           G
  Eres el dueño de mi vida, eres mi paz
Bm           D          G
  El que completa cada sueño, cada plan
Bm          D            G
  Si me faltaras soy un barco sin timón
Bm          D             G
  Son tus palabras mi compás, mi dirección
       Bm
  Solo tu
       Bm
  Solo tu

CORO:

F#m                 A
  Eres el agua que quita mi sed
E                         Bm
  que me refresca y me restaura otra vez
F#m                  A
  El que me llena me da plenitud
E                     Bm
  Me da descanso y me muestra la luz
     D                         F#m
El camino a seguir si es que quiero vivir
      E/G#    D - C#m - A - F#m
Otra vez


F#m                 A
  Eres el agua que quita mi sed
E                         Bm
  que me refresca y me restaura otra vez
F#m                  A
  El que me llena me da plenitud
E                     Bm
  Me da descanso y me muestra la luz
     D                         F#m
El camino a seguir si es que quiero vivir
      E/G#    Em
Otra vez


      Bm        D      G               Bm      D       G
Solo tu                           Solo tu
   e-|----------0---1--------------------------0---0---5--5-8--8-7-5-|
   B-|-1---1----1---0------------------1---1---1---1-----------------|
   G-|-2---2------------2---2-2---2-2--2---2-------------------------|
   D-|---2---2----2---2---3--------------2---2---2---2---------------|
   A-|-0--------3---------------3------0-------3---------------------|
   E-|------------------1--------------------------------------------|


      Bm        D      G               Bm      D       G
Solo tu                             Solo tu
   e-|----------0---1--------------------------0---0------|
   B-|-1---1----1---0------------------1---1---1---1------|
   G-|-2---2------------2---2-2---2-2--2---2------------2-|
   D-|---2---2----2---2---3--------------2---2---2---2--3-|
   A-|-0--------3---------------3------0-------3----------|
   E-|------------------1-------------------------------1-|

ACORDES USADOS:

                    Bm

      1    2    3    4    5    6    7
e-| |----|-||-|----|----|----|----|----|
B-| |----|-||-|-
Suggest correction
Give kudos to tab author, rate the tab!
1 2 3 4 5
comments
print report bad tab
guest
Wanna post a correction for this tab? Suggest correction