Oops, an error
Loading. Please wait.

El Es El Rey Bass Tab

version 1
version 1

Whole song

Interactive

80 views 1 this week
no commentswrite comment
1 2 3 4 5
3 more votes to show rating
add to favorites
launch autoscroll
font size
0
reset
guitar tuner
Autoscroll
slow
fast
+/-
esc
set tempo
stop
Help us to improve Ultimate-Guitar.com Take our survey!
×
Introducción:
               E     C       E     C        E     C       E     C
 E |----------------------------------------------------------------|
 A |----------7-7---3-3-----7-7---3-3------7-7---3-3-----7-7---3-3--|
 D |----------------------------------------------------------------|
 G |----------------------------------------------------------------|

Primer verso:

        Él es el rey infinito en poder    Él es el rey, de los cielos
              E            C                      E            C
 E |-----------------------------------------------------------------|
 A |---------7-7----------3-3--------------------7-7----------3-3----|
 D |-----------------------------------------------------------------|
 G |-----------------------------------------------------------------|
          Seré para él siervo fiel      Pues mi vida compró con su amor
             E            C                       G               D
 E |---------------------------------------------3-3-----------------|
 A |---------7-7---------3-3-------------------------------------5-5-|
 D |-----------------------------------------------------------------|
 G |-----------------------------------------------------------------|


Segundo verso:

       Él es el rey, lo confiesa mi ser   Él es el rey, de los siglos
           E            C                    E            C
 E |-----------------------------------------------------------------|
 A |------7-7----------3-3------------------7-7----------3-3---------|
 D |-----------------------------------------------------------------|
 G |-----------------------------------------------------------------|

           Mi vida la rindo a sus pies    Él es rey sobre mi corazón
              E           C                      G               D
 E |--------------------------------------------3-3------------------|
 A |---------7-7---------3-3------------------------------------5-5--|
 D |-----------------------------------------------------------------|
 G |-----------------------------------------------------------------|

Coro:
           Él es el rey, el es el rey   Él es el rey de mi vida
               E           C                      G               D
 E |-------------------------------------------3-3-------------------|
 A |---------7-7---------3-3------------------------------------5-5--|
 D |-----------------------------------------------------------------|
 G |-----------------------------------------------------------------|

           Él es el rey, el es el rey          Reina con autoridad
               E           C                      G               D
 E |-------------------------------------------3-3-------------------|
 A |---------7-7---------3-3------------------------------------5-5--|
 D |-----------------------------------------------------------------|
 G |-----------------------------------------------------------------|

Tercer Verso:

           Su reino eterno es                Su trono el cielo es
              C          D                      E      D     C
 E |-----------------------------------------------------------------|
 A |---------3-3--------5-5--------------------7-7-----5----3-3------|
 D |-----------------------------------------------------------------|
 G |-----------------------------------------------------------------|

          Él  es  el  rey  que viene  a  su  pueblo  a  llevar
              Bm                D                          E
 E |-----------------------------------------------------------------|
 A |---------------------------5-5------------------------7-7--------|
 D |----------7-7----------------------------------------------------|
 G |-----------------------------------------------------------------|


| C  =  Do  |
| D  =  Re  |
| E  =  Mi  |
| F  =  Fa  |
| G  =  Sol |
| A  =  La  |
| B  =  Si  |


Saludos, espero que la disfruten, y si hay algún error,
aquí van las disculpas correspondientes.
Suggest correction
Give kudos to tab author, rate the tab!
1 2 3 4 5
comments
print report bad tab
guest
You may want to rate the tab now too:
select rating
Wanna post a correction for this tab? Suggest correction