Oops, an error
Loading. Please wait.

El Jardín Tab

version 1
version 1

Whole song

39 views 1 this week
no commentswrite comment
1 2 3 4 5
3 more votes to show rating
add to favorites
launch autoscroll
font size
0
reset
how to read this tab
guitar tuner
Autoscroll
slow
fast
+/-
esc
set tempo
stop
Help us to improve Ultimate-Guitar.com Take our survey!
×
Aquí les va el intro

E-------------------------------------------------------------10\12--
B------------3-2--3------3-2-0--2-3-5--5\7--(7-8-7-5)--7-8-10--------
G------0-2-----------2-----------------------------------------------
D---4----------------------------------------------------------------
A--------------------------------------------------------------------
E--------------------------------------------------------------------

E---10-9-----5\7---5h7-5---------------
B-------------------------2\3--0--3\5--
G--------------------------------------
D--------------------------------------
A--------------------------------------
E--------------------------------------


Este es un pequeño requinto despues del coro

E------------10-9--10------------------------------------2-0-
B---7-8-8\10---------10--8--7--5--3--5\7--5--2-3---0-2-3-----
G------------------------------------------------------------


( ) se toca un poco rapido

Puede que tenga errores pero estoy seguro de que 
la parte del requinto esta perfecta. Dios les bendiga
Suggest correction
Give kudos to tab author, rate the tab!
1 2 3 4 5
comments
print report bad tab
guest
You may want to rate the tab now too:
select rating
Wanna post a correction for this tab? Suggest correction