Oops, an error
Loading. Please wait.

El Monte Del Señor Bass

4 views 1 this week
no commentswrite comment
1 2 3 4 5
3 more votes to show rating
add to favorites
launch autoscroll
font size
0
reset
guitar tuner
×
Best way to learn
"El Monte Del SeÑor"
Autoscroll
slow
fast
+/-
esc
set tempo
stop
  Hola de nueva cuenta:

     Este gran Adorador tiene la unción de Dios muy fuerte en su vida,
y es un ejemplo a seguir para los músicos; que mas que músicos devemos 
ser adoradores. El sig. tab esta algo complicado y tuve que hacerle 
arreglos pero espero les Sirva.


::Intro  Solo Guitarra::

::Intro::

E |--3h5--5--3h5--5--3h5---3h5---------------------------------3h5--5--3h5--5--3h5------------
A |--------------------------------------3h5--5--3h5--5--3h5----------------------------------
D |-------------------------------------------------------------------------------------------
G |-------------------------------------------------------------------------------------------
B |-------------------------------------------------------------------------------------------


::Verso::                                      ::3 Veces::

E |--3h5--5--3h5--5--3h5----------------------------------------
A |-------------------------------3h5--5--3h5--5--3h5-----------
D |-------------------------------------------------------------
G |-------------------------------------------------------------
B |-------------------------------------------------------------


E |--1----------------------0-------------------0---------------
A |-----3----------------------2-------------------2------------
D |----------1--2---3-------------0--1--2------------0--1--2----
G |-------------------------------------------------------------
B |-------------------------------------------------------------


::Coro::                            ::2 Veces::

E |---5--3---0---3--5--------------------------3--1---------------0-----------------
A |-------------------------5---------------------------3---------------2-----------
D |-----------------------------7---------------------------2--3----------0--1--2---
G |---------------------------------5--6--7-----------------------------------------
B |---------------------------------------------------------------------------------


E |--5--------------------------------------3--1----------
A |-----7---------------5-------------------------3-------
D |--------5--6--7--------7-------------------------2--3--
G |----------------------------5--6--7--------------------
B |-------------------------------------------------------


E |---0-------------------0------------------------
A |------2--------------------2--------------------
D |---------0--1--2--------------0--1--2-----------
G |------------------------------------------------
B |------------------------------------------------


Sugerencias o aclaraciones ya saben.

G O D  B L E S S  Y O U  ! ! !
Suggest correction
Give kudos to tab author, rate the tab!
1 2 3 4 5
comments
print report bad tab
guest
You may want to rate the tab now too:
select rating
Wanna post a correction for this tab? Suggest correction