Oops, an error
Loading. Please wait.

En El Estoy Seguro Bass

68 views 1 this week
no commentswrite comment
1 2 3 4 5
3 more votes to show rating
add to favorites
×
Save as Personal and add changes to this tab that will be seen only by you. Learn more ›
×
You can save this tab as Personal to edit and correct it or add notes. All changes will be seen only by you. Learn more »
save as personal
new!
launch autoscroll
font size
0
reset
guitar tuner
Autoscroll
slow
fast
+/-
esc
set tempo
stop
Hola a todos aquí están las tabs originales de esta canción

Intro:
B--------/---------------------------/
E-3-15-3-/--------------5-----3------/
A--------/--3-----3------------------/
D--------/-----------------7-----5---/
G--------/-----5-----5---------------/

Estrofa:
B------------------------/---------------------------/
E----5s6--5s6-0--0--2--3-/----5s6--5s6---0--0--2--3--/
A--5---------------------/--5------------------------/
D------------------------/---------------------------/
G------------------------/---------------------------/
                                           **ADORNO**
B--------------------------------------/------------------/
E-------3----3-0--0--2--3---6-6---5-5--/------------------/
A--3-3----3----------------------------/---5s7------------/
D--------------------------------------/--------5---3--5--/
G--------------------------------------/------------------/
2 veces

Coro:
SLAP
B---------------------------/
E--------------5-----3------/
A--3-----3------------------/
D-----------------7-----5---/
G-----5-----5---------------/
-SOLO DE GUITARRA (FIGURAS DEL CORO)
-2 VECES TODO

PUENTE:
B---------------------------/-------------------------------/
E-------------------3---3-3-/----------3-4--5-----6-6---5-5-/
A-3--3-3----3--3-3----------/--3--3-3-----------------------/
D---------5-----------------/-------------------------------/
G---------------------------/-------------------------------/

PAUSA
SOLO:
B------------------------/------------------------/
E----5s6--5s6-0--3---5---/----5s6--5s6-0--3---5---/
A--5---------------------/--5---------------------/
D------------------------/------------------------/
G------------------------/------------------------/
2 veces


ESpero que les sirva
Dudas o comentarios escriban al mail.
¡ B E N D I C I O N E S!
Suggest correction
Give kudos to tab author, rate the tab!
1 2 3 4 5
comments
print report bad tab
guest
Wanna post a correction for this tab? Suggest correction