Oops, an error
Loading. Please wait.

En El Estoy Seguro Tab

52 views 1 this week
no commentswrite comment
1 2 3 4 5
3 more votes to show rating
add to favorites
launch autoscroll
font size
0
reset
how to read this tab
guitar tuner
Autoscroll
slow
fast
+/-
esc
set tempo
stop
Help us to improve Ultimate-Guitar.com Take our survey!
×
Bien esta es mi primer transcripción espero les sirva de algo,
aunque hay una parte que no estoy seguro, pero en si esta bien
parecido y úsenla para glorificar la Gloria de Dios.
Viva el ministerio musical de la iglesia ?EL BUEN PASTOR?
en Tegucigalpa, Honduras.

Bien acá les va el solo de guitarra eléctrica espero lo saquen
esta fácil.

E--------------------------------------------------------
B---13p10-13/15-15p13------------------------------------
G-------------------------14-12/14/12--------------------
D--------------------------------------------------------
A--------------------------------------------------------
E--------------------------------------------------------

E--------------------------------------------------------
B--------------------------------------------------------
G-------------12-14-12-10-9------------------------------
D---12-12-15---------------------------------------------
A--------------------------------------------------------
E--------------------------------------------------------

E--------------------------------------------------------
B---12/15-15/20-18-15-13-10------------------------------
G---------------------------10p8-10b---------------------
D--------------------------------------------------------
A--------------------------------------------------------
E--------------------------------------------------------

E--------------------------------------------------------
B--------------------------------------------------------
G---------------------10-12-10h12p10-12-12p10------------
D---------------10-12-------------------------12p10-12---
A---------10-12------------------------------------------
E---10-13------------------------------------------------

En el final la guitarra hace esta figura

En el estoy seguro,   en el estoy seguro
E---8/10-8/10-8-------------------------------------------
B---------------10-8----5-6-5-6-5-------------------------
G---------------------7-----------------------------------
D---------------------------------------------------------
A---------------------------------------------------------
E---------------------------------------------------------

En el estoy seguro,     en el estoy seguro
E---8/10-8/10-13-15-17--10-13-15-18-17--------------------
B---------------------------------------------------------
G---------------------------------------------------------
D---------------------------------------------------------
A---------------------------------------------------------
E---------------------------------------------------------

Bueno esto es todo revísenlo y si tiene errores por favor
corríjanlos o avísenme bien espero les sirva. "DIOS LES BENDIGA"
Suggest correction
Give kudos to tab author, rate the tab!
1 2 3 4 5
comments
print report bad tab
guest
You may want to rate the tab now too:
select rating
Wanna post a correction for this tab? Suggest correction