Oops, an error
Loading. Please wait.

En La Azotea Tab

79 views 1 this week
no commentswrite comment
1 2 3 4 5
3 more votes to show rating
add to favorites
launch autoscroll
font size
0
reset
how to read this tab
guitar tuner
×
Best way to learn
"En La Azotea"
Autoscroll
slow
fast
+/-
esc
set tempo
stop
EN VERDAD EL PUNTEO DEL INTRO ES SOLO CON BANJO
PERO AQUÍ ESTÁ LA TRANSCRIPCIÓN A GUITARRA

E|-------------------------------------------------------------------|
B|----------------15-15-----------------------16-16------------------|
G|-12-15-15-12-15-------15-14--14-17-17-14-17-------17---11-14-11-14-|
D|-------------------------------------------------------------------|
A|-------------------------------------------------------------------|
E|-------------------------------------------------------------------|

E|-------------------------------------------------------------------|
B|----------------15-15-----------------------16-16------------------|
G|-12-15-15-12-15-------15-14--14-17-17-14-17-------17---11-14-11-14-|
D|-------------------------------------------------------------------|
A|-------------------------------------------------------------------|
E|-------------------------------------------------------------------|

OJALÁ LES SIRVA... SALUDOS DESDE CONCEPCIÓN, CHILE....
Suggest correction
Give kudos to tab author, rate the tab!
1 2 3 4 5
comments
print report bad tab
guest
You may want to rate the tab now too:
select rating
Wanna post a correction for this tab? Suggest correction