Oops, an error
Loading. Please wait.

Es Más Que Una Canción Tab

29 views 1 this week
no commentswrite comment
1 2 3 4 5
3 more votes to show rating
add to favorites
launch autoscroll
font size
0
reset
how to read this tab
guitar tuner
Autoscroll
slow
fast
+/-
esc
set tempo
stop
Help us to improve Ultimate-Guitar.com Take our survey!
×
Guitarra acústica

e----3h4---------------------------------------
B--------5-7-9-5-7-5--4-5-4----4-4h5-----------
G----------------------------6-------4h6-6-4---
D----------------------------------------------
A----------------------------------------------
E----------------------------------------------

A este siguiente, se dejan pisando & arpegiando
De arriba hacia abajo & de abajo hacia arriba.
(En circulo)

e--------------7--------------------------------
B---------5-------------------------------------
G------4----------------------------------------


Guitarra eléctrica en coro

El 5to traste de la 2da cuerda & el Séptimo de la 1ra,
Se dejan pisando & arpegiando sucesivamente.

e------------------7---7h9-7---------------------
B-------------5----------------------------------

Después sube medio Tono

e------------------8----8h10-8-------------------
B-------------6----------------------------------


Espero & me haya podido explicar bien..!!!
Suggest correction
Give kudos to tab author, rate the tab!
1 2 3 4 5
comments
print report bad tab
guest
You may want to rate the tab now too:
select rating
Wanna post a correction for this tab? Suggest correction