Oops, an error
Loading. Please wait.

Es Por Tu Gracia Tab

version 1
version 1

Whole song

Interactive

126 views 3 this week
no commentswrite comment
1 2 3 4 5
3 more votes to show rating
add to favorites
launch autoscroll
font size
0
reset
how to read this tab
guitar tuner
Autoscroll
slow
fast
+/-
esc
set tempo
stop
Help us to improve Ultimate-Guitar.com Take our survey!
×
INTRO:

e|----7-7--5-5-4---------|---5-5-4-5p4-----------|-----------------|
B|---------------8/7--5--|---------------7-5-7/9-|---5-5--4-4-5h4--|
G|----8-8--6-6-4---------|---6-6-4-6p4-----------|---------------4-|
D|---------------8/7--6--|---------------7-6-7/9-|---6-6--4-4------|
A|-----------------------|-0---------------------|-4---------------|
E|-0---------------------|-----------------------|-----------------|


e|-----------|----------0------0-------|
B|--2------2-|----0----------0----4-2--|
G|-------4---|-------2------------4-2--|
D|-----2-----|--2----4-----------------|
A|-----------|-------------------------|
E|-----------|-0-----------0-----------|

FINAL:
e|----7v-7v--5v-5v-4h5p4------|---5v-5v--4-4h5p4---------|---------|
B|-----------------------7--5-|--------------------7-5-4-|----5----|
G|----8v-8v--6v-6v-4h5p4------|---6v-6v--4-4h5p4---------|---4-----|
D|-----------------------7--6-|--------------------7-6-4-|--6------|
A|----------------------------|-0------------------------|---------|
E|-0--------------------------|--------------------------|---------|
Nota: La velocidad del hammer on(h) al pull off(p), es rapida.
HAGANLO escuchando la version en vivo tocada por Kiko Cibrian.
Suggest correction
Give kudos to tab author, rate the tab!
1 2 3 4 5
comments
print report bad tab
guest
You may want to rate the tab now too:
select rating
Wanna post a correction for this tab? Suggest correction