Oops, an error
Loading. Please wait.

Es Por Tu Gracia Tab

version 2
version 2

Whole song

Interactive

59 views 1 this week
no commentswrite comment
1 2 3 4 5
3 more votes to show rating
add to favorites
launch autoscroll
font size
0
reset
how to read this tab
guitar tuner
×
Best way to learn
"Es Por Tu Gracia"
Autoscroll
slow
fast
+/-
esc
set tempo
stop
(nuevos ajustes) algunos detalles sencillos pero importantes

... para Dios sea toda loa Gloria,
por ello lo mejor es adorarle en espíritu y en verdad
con todo lo mejor, porque él se lo merece...
espero les sea de bendición...


INTRO:

   E                        A                     C#m   C#m/B

e|----7-7--5-5-----------|---5-5--4-4-----------|-----------------|
B|-------------9-9/7--5--|-------------7-5-7/9--|---5-5--4-4-5h4--|
G|----8-8--6-6-----------|---6-6--4-4-----------|---------------4-|
D|-------------9-9/7--6--|-------------7-6-7/9--|---6-6--4-4------|
A|-----------------------|-0--------------------|-4---------------|
E|-0---------------------|----------------------|--------7--------|


    A  Aadd9      E

e|-----------|----------0------0-------|----------|
B|--2------2-|----0----------0----4-2--|-------0--|
G|--2----4---|-------2------------4-2--|-----2----|
D|-----2-----|--2----4-----------------|---2------|
A|--0--------|-------------------------|----------|
E|-----------|-0-----0-----0-----------|-0--------|

proximamente les estaré enviando el TAB del resto de la canción...
cualquier duda escribanme a mi correo loordandy@
Suggest correction
Give kudos to tab author, rate the tab!
1 2 3 4 5
comments
print report bad tab
guest
You may want to rate the tab now too:
select rating
Wanna post a correction for this tab? Suggest correction