Oops, an error
Loading. Please wait.

Escalera Con Las Nubes Tab

34 views 1 this week
no commentswrite comment
1 2 3 4 5
3 more votes to show rating
add to favorites
launch autoscroll
font size
0
reset
how to read this tab
guitar tuner
×
Best way to learn
"Escalera Con Las Nubes"
Autoscroll
slow
fast
+/-
esc
set tempo
stop
Bueno, para tocar bien el canto
tienen q afinar la guitarra acustica en Drop D#
(medio tono abajo)


Intro:

    B             Asus2           G#m             E
B-|----------------7/9------------------------------|
G-|-6/8---6/8--6---------6/8--6---6/8---6/8--6------|
D-|--------------9--------------9--------------9--6-|

               B
B-|---5/7---5----|
G-|----------6/8-|
D-|-6------------|

             Asus2           G#m                E
B-|-----------7/9--------------------------------------------|
G-|--6/8--6---------6/8--6---6/8b9r8---6/8--6----------------|
D-|---------9--------------9------------------9--6-----4h6p4-|

B                   Asus2
Haz una escalera con las nubes
                  G#m
Abre una ventana haya en el cielo
      E                       F#    B-|-7/9-7------|
para subir cada mañana y saludarte  G-|-------9--8-|
B                   Asus2
Haz un arcoiris con tu nombre
                   G#m
canto una canción usando el viento
         E                       F#            B-|--------7/8-7-|
para escuchar tu corazón y enamorarme otra vez G-|-6--8-9-------|


D#m                        E    E-|-11--9--7--6-|
Porque si te siento junto a mi
D#m                             E
Es más fácil caminar si estoy aquí
        F#    G-|-------6/8--6--4-|
Cerca de ti   D-|-4h6-4-----------|


C O R O:
B                    G#m
Hazme danzar como el árbol
           D#              E
cuando se asoma por mi ventana
B                     G#m
Hazme brillar como el árbol
           D#                 E
Cuando los rayos del sol lo abrazan
G#m              B
Hazme reir como niño
             D#                E
Cuando en sus sueños en ti descansa
Em               B
Quiero estar en ti.

    B             Asus2           G#m                 E
B-|----------------7/9----------------------------------|
G-|-6/8---6/8--6---------6/8--6---6/8h9p9---6/8--6------|
D-|--------------9--------------9------------------9--6-|

               B
B-|-----------------|
G-|-----4h6p4---4---|
D-|-4h6-------6-----|


B                   Asus2
Haz una escalera con las nubes
                  G#m
Abre una ventana haya en el cielo
      E                       F#    E-|-------7/9--7-|
para subir cada mañana y saludarte  B-|-7/9-7--------|
B                   Asus2
Haz un arcoiris con tu nombre
                   G#m
canto una canción usando el viento
         E                       F#            B-|--------11/7--|
para escuchar tu corazón y enamorarme otra vez G-|-6--8-9-------|


D#m                        E   E-|-11--9--7--6-|
Porque si te siento junto a mi
D#m                             E
Es más fácil caminar si estoy aquí
        F#   B-|-7h9-9----------------|
Cerca de ti  G-|-------6h8-6--4h6-4-4-|


C O R O:
B                    G#m
Hazme danzar como el árbol
           D#              E
cuando se asoma por mi ventana
B                     G#m
Hazme brillar como el árbol
           D#                 E
Cuando los rayos del sol lo abrazan
G#m              B
Hazme reir como niño
             D#                E
Cuando en sus sueños en ti descansa
Em               B
Quiero estar en ti.

     B        Asus2           G#m                E
B-|-----------7/9------------------------------------|
G-|--6/8--6---------6/8--6---6/8b9r8---6/8--6--------|
D-|---------9--------------9------------------9--6---|


Acordes usados:

                 B

       1    2    3    4    5
d#-| |----|----|----|----|----|
A#-| |-
Suggest correction
Give kudos to tab author, rate the tab!
1 2 3 4 5
comments
print report bad tab
guest
You may want to rate the tab now too:
select rating
Wanna post a correction for this tab? Suggest correction