Oops, an error
Loading. Please wait.

Espérame Tab

version 1
version 1

Whole song

Interactive

91 views 1 this week
no commentswrite comment
1 2 3 4 5
3 more votes to show rating
add to favorites
launch autoscroll
font size
0
reset
how to read this tab
guitar tuner
Autoscroll
slow
fast
+/-
esc
set tempo
stop
Help us to improve Ultimate-Guitar.com Take our survey!
×
Dios los bendiga;
espero y esta transcripcion les ayude mucho...

Para entonar esta cancion vamos a utilizar un capo en el 4to traste;
Ya k la cancion esta originalmente por E...

NOTA: La tablatura esta compuesta sin tomar en cuenta el capo; es
decir, colocan el capo en el 4to traste y desde alli toman en cuenta
 LA tablatura..

Introduccion:

e--------3----------3--------3-------------------
B--0h1--------0h1------0h1---------0h1-0---1-0---
G------0----------0--------0---------------0-0---
D--3-------------------0-------------------2-0---
A------------------------------------------------
E-------------3----------------------------------

e--------3----------3--------3-------------------
B--0h1--------0h1------0h1-------1h3s5-----------
G------0----------0--------0---------------------
D--3-------------------0-------------------------
A------------------------------------------------
E-------------3----------------------------------

Estrofa:
Verso1
  Add2         B             E
e-------------------------------0--------------
B-----------------0------------1---------------
G----0-2---------0------------0----------------
D---3-----------0------------------------------
A--3-------------------------3-----------------
E-1------------3-------------------------------
         Espérame por la mañana

    B/D#  C#m11   B
e----------------------------------------------
B----0-----1-----0-----------------------------
G----0-----0-----0-----------------------------
D----0-----0-----0-----------------------------
A----2-----0-----------------------------------
E----------------3-----------------------------

     A             B            C#m7
e----------------------------------------------
B----------------0---------------1-------------
G----2----------0---------------0--------------
D---3----------0---------------2---------------
A--3--------------------------0----------------
E-1-----------3--------------------------------
       antes de que salga el sol

          G#m               Aadd9
e-----------------------------3----------------
B-----------0----------------1-----------------
G----------0----------------2------------------
D---------1----------------3-------------------
A----------------------------------------------
E--------0-------------------------------------
    antes que comience el día

             F#m7       B9sus4    B   E/G#
e--------------1-------------------------------
B-------------1------------1----1--0---1-------
G------------2------------2-2---2--0---0-------
D-----------0------------0---0--0--0---0-------
A----------------------------------------------
E-----------------------3-------3--3---0-------
    quiero darte mi canción

Verso2
   Add2         B          E
e---------------------------------------------------
B-----------------0----------1--1-3-3s5-3h1---------
G----0-2---------0----------0-------------0---------
D---3-----------0----------2----------------0h2-5h7-
A--3----------------------3-------------------------
E-1------------3------------------------------------
         Espérame cuando las aves

   Add2            B     G#7/C  C#m7
e---------------------------------------------------
B--------------------0----0------1------------------
G----2--------------0----1------0-------------------
D---3--------------0----0------2--------------------
A--3--------------------------0---------------------
E-1---------------3----4----------------------------
       aun no empiezan a cantar

          G#m               Aadd9
e-----------------------------3----------------
B-----------0----------------1-----------------
G----------0----------------2------------------
D---------1----------------3-------------------
A----------------------------------------------
E--------0-------------------------------------
   cuando todo esta en silencio

F#m7              B9sus4    B
e--------------1--------------------------------
B-------------1------------------1----1--0------
G------------2------------------2-2---2--0------
D-----------0------------------0---0--0--0------
A-----------------------------------------------
E-----------------------------3-------3--3------
yo contigo quiero hablar

Coro:
 A/C# B/D#  Eadd9  B/D#     G#7/C
e--1--2-------3-------3---------------------------
B--1--2----3-------3----------0-------------------
G--0--0-----0-------0--------1--------------------
D------------2-------0------0---------------------
A--0--2----3--3----2--2---------------------------
E--------------------------4----------------------
  Espérame luz de mi corazón

     C#m7   E/G#  A       E5/G#    F#m7
e-------------------------------------1--------
B------1--1--1-----------------------1---------
G-------0----0----2-----------5-----2----------
D--------2---2---3-----------5-----0-----------
A------0--0-----3-----------3------------------
E------------0-1-----------0-------------------
    espérame   estrella de la mañana


   F7/A#   B9sus4     B
e---------------------------------------------
B------1----1-----1---0-----------------------
G-----0----0-0----0---0-----------------------
D----2----2---2---2---0-----------------------
A---------------------------------------------
E---2----3--------3---3-----------------------
   te quiero ver

 A/C# B/D#  Eadd9  B/D#     G#7/C
e--1--2-------3-------3---------------------------
B--1--2----3-------3----------0-------------------
G--0--0-----0-------0--------1--------------------
D------------2-------0------0---------------------
A--0--2----3--3----2--2---------------------------
E--------------------------4----------------------
  Espérame dueño de mi amor

     C#m7   E/G#  A       E5/G#    F#m7
e-------------------------------------1--------
B------1--1--1-----------------------1---------
G-------0----0----2-----------5-----2----------
D--------2---2---3-----------5-----0-----------
A------0--0-----3-----------3------------------
E------------0-1-----------0-------------------
    espérame   serás mi primera cita

    F7/A#   B9sus4     B
e---------------------------------------------
B------1----1-----1---0-----------------------
G-----0----0-0----0---0-----------------------
D----2----2---2---2---0-----------------------
A---------------------------------------------
E---2----3--------3---3-----------------------
   ahí estaré

De alli viene la estrofa2; k se entona igual k la estrofa1..
Luego se entona nuevamente el coro..

El outro (o final) es igual a la introduccion..

e--------3----------3--------3-------------------
B--0h1--------0h1------0h1---------0h1-0---1-0---
G------0----------0--------0---------------0-0---
D--3-------------------0-------------------2-0---
A------------------------------------------------
E-------------3----------------------------------

e--------3----------3--------3-------------------
B--0h1--------0h1------0h1-------1h3s5-----------
G------0----------0--------0---------------------
D--3-------------------0-------------------------
A------------------------------------------------
E-------------3----------------------------------

La cancion termina con el piano; el cual hace lo mismo k la
 guitarra en la introduccion..

DETALLES: Los acordes escritos sobre la tablatura son los originales
de la cancion k van a tomar su forma y sonido una vez k coloquemos el
capo en el 4to traste..
Esta tablatura es muy util ya k nos permitira bajar y subir tonos por
lo k estamos utilizando un capo; permitiendonos asi mantaner la
armonia de la cancion aunk coloquemos el capo en otro traste..
En el coro solo añadi unos cuantos detalles: como
 "acordes especiales de paso"

Alguna sugerencia o comentario escriban a mi face:
me encontraran como Marcos Rivera Macias..
Santo Domingo de los tsachilas_Ecuador..
Dios los bendiga..
Suggest correction
Give kudos to tab author, rate the tab!
1 2 3 4 5
comments
print report bad tab
guest
You may want to rate the tab now too:
select rating
Wanna post a correction for this tab? Suggest correction