Oops, an error
Loading. Please wait.

Espérame Tab

version 2
version 2

Whole song

Interactive

69 views 1 this week
no commentswrite comment
1 2 3 4 5
3 more votes to show rating
add to favorites
launch autoscroll
font size
0
reset
how to read this tab
guitar tuner
×
Best way to learn
"Espérame"
Autoscroll
slow
fast
+/-
esc
set tempo
stop
ok decidi subir esta hermosa cancion por
que todas no tienen los acordes originales
esta es la original...........
te la dedico a ti mi ñiña

e------7-------7----------7---------------------------
B---------------------------------------------5---4---
G--8h9-----8h9-------8h9-------8---8------------------
D---------------------------------------------7--4----
A--0-------7-----------------------9------------------
E--------------------9--------------------------------

e------7---------7--------7---------------------------
B-----------------------------------------------------
G--8h9------8h9-------8h9------8--8/13----------------
D-----------------------------------------------------
A--0--------7-----------------------------------------
E---------------------9-------------------------------


Aadd2    B7          E   G#m7
  Espérame por la mañana

e-----------
B--4--5--4--
G-----------
D--4--6--4--

Aadd2   B7               C#m7
 antes de que salga el sol
        G*              Aadd2
 antes que comience el día
         F#m7         Bsus4 B E/G#
 quiero darte mi canción

Aadd2    B7            E    G#m7
  Espérame cuando las aves
Aadd2        B    G#7/C  C#m7
  aun no empiezan a cantar
        G*            Aadd2
cuando todo esta en silencio
    F#m7               Bsus4 B
yo contigo quiero hablar

Coro:
       E        B/D#
Espérame luz de mi corazón
   C#m7     Aadd2          F#m7
espérame estrella de la mañana
           Bsus4 B
te quiero ver
       E       B/D#
Espérame dueño de mi amor
   C#m7     Aadd2         F#m7
espérame serás mi primera cita
       Bsus4 B
ahí estaré

Verso 2:

Aadd2    B            E    G#m7
  Espérame desde temprano
e-----------
B--4--5--4--
G-----------
D--4--6--4--

Aadd2    B7               C#m7
  yo no quiero el día empezar
      G*            Aadd2
sin estar en tu presencia
     F#m7              Bsus4 B E/G#
sin saber que cerca estas

Aadd2    B7           E  G#m7
  Espérame que necesito

Aadd2     B   G#7/C   C#m7
  tu mirada sobre  mi
       G*          Aadd2
llenas todos mis anhelos
     F#m7         Bsus4 B
solo así puedo vivir

G*  E A D G B E     Aadd2  E A D G B E
    4 X 0 4 5 X            X 0 2 4 2 X


un saludo al ministerio musical
cristiano getzemani de coacotla
dios los bendiga
Suggest correction
Give kudos to tab author, rate the tab!
1 2 3 4 5
comments
print report bad tab
guest
You may want to rate the tab now too:
select rating
Wanna post a correction for this tab? Suggest correction