Oops, an error
Loading. Please wait.

Espérame Tab

version 3
version 3

Whole song

Interactive

68 views 1 this week
no commentswrite comment
1 2 3 4 5
3 more votes to show rating
add to favorites
launch autoscroll
font size
0
reset
how to read this tab
guitar tuner
Autoscroll
slow
fast
+/-
esc
set tempo
stop
 La guitarra I lleva un capo en el cuarto traste y los
 espacios empiezan a partir del capo.
 La guitarra II no lleva capo.

Intro:

  Guitarra I:

       A        B       C#m7
    e|-------3--------3--------3---------|
    B|-0h1------0h1------0h1-----1-0-1-0-|
    G|-----0-----------------------0---0-|
    D|-3------------0--------2-----------|
    A|-------------------0-----------0---|
    E|----------3------------------3-----|

       A        B       C#m7
    e|-------3--------3--------3-----0-|
    B|-0h1------0h1------0h1-----3-----|
    G|-----0---------------------------|
    D|-3------------0--------2-----2---|
    A|-------------------0-------------|
    E|----------3----------------------|

  Guitarra II:

    D|-----7s9------7s9------7s9--------|
    A|-6s7------6s7------6s7-----9---11-|

 El verso va acompañado de la guitarra I (y arreglos de la
 guitarra II)

       A       B           E                G#m7
Verso:   Espérame por la mañana

    B|---------------0-----------1----0--1-----0-|
    G|-------2-----0-----------0---0--0--0----0--|
    D|-----3-----0-----------2--------0--2---0---|
    A|---3-----------------3-------------0-------|
    E|-1-------3----------------------3-----0----|

       A       B               C#m7
         Antes de que salga el sol

    B|---------------0---------------1-|
    G|-------2-----0---------------0---|
    D|-----3-----0---------------2-----|
    A|---3---------------------0-------|
    E|-1-------3-----------------------|

               G#m7             A
         Antes que comience el día

    e|---------------0----------------3-|
    B|-------------0----------------1---|
    G|-----------0----------------2-----|
    D|--------------------------3-------|
    A|----------------------------------|
    E|---------0------------------------|

                F#m7         Bsus4         B  E/G#
         Quiero darte mi canción

    e|----------------1----------------------------|
    B|--------------3--------------1-----1-0-----1-|
    G|------------2--------------0-----0--------0--|
    D|----------0--------------0-----0---------2---|
    A|---------------------------------------------|
    E|-----------------------3----------------0----|

  Guitarra II:

    B|-----------------------------5-----5-4-|
    G|---------------------------4-----4-----|
    D|-------------------------4-----4-------|

       A       B             E                    G#m7
         Espérame cuando las aves

    e|-----------------------------------0----------|
    B|---------------0---------------1-3---3-1------|
    G|-------2-----0---------------0-----------0--0-|
    D|-----3-----0-------------0-2----------------0-|
    A|---3-------------------3--------------------1-|
    E|-1-------3----------------------------------0-|

 Guitarra II:

    e|-----------------------------------4-------------|
    B|-------------------------------5-7---5-7---------|
    G|-----------------------------------------4---4s6-|
    D|-------------------------------------------6-----|

       A           B   G#7/C C#m7
         Aún no empiezan a cantar

    e|-------------------0-----------|
    B|------------------3----------1-|
    G|-------2-----0-------------0---|
    D|-----3-------0-----------2-----|
    A|---3-------------------0-------|
    E|-1-----------3---4-------------|

               G#m7             A
         Cuando todo está en silencio

    E|---------------0----------------3-|
    B|-------------0----------------1---|
    G|-----------0----------------2-----|
    D|--------------------------3-------|
    A|----------------------------------|
    E|---------0------------------------|

            F#m7            Bsus4 B
         Yo contigo quiero hablar

    e|------------1-------------------------|
    B|----------3-----------------1-----1-0-|
    G|--------2-----------------0-----0-----|
    D|------0-----------------0-----0-------|
    A|--------------------------------------|
    E|----------------------3---------------|

 Guitarra II:

    B|----------------------------5-----5-4-|
    G|--------------------------4-----4-----|
    D|------------------------4-----4-------|

              E
Coro:   Espérame
              B/D#          C#m7
        Luz de mi corazón, espérame
           A            F#m7
        Estrella de la mañana
              Bsus4 B
        Te quiero ver
              E
        Espérame
              B            C#m7
        Dueño de mi amor, espérame
           A            F#m7
        Serás mi primera cita
             Bsus4 B
        Ahí estaré

Intro.

       A       B            E                G#m7
Verso:   Espérame desde temprano

    B|---------------0------------1----0--1-----0-|
    G|-------2-----0------------0---0--0--0----0--|
    D|-----3-----0------------2--------0--2---0---|
    A|---3------------------3-------------0-------|
    E|-1-------3-----------------------3-----0----|

       A        B               C#m7
         Yo no quiero el día empezar

    B|----------------0---------------1-|
    G|-------2------0---------------0---|
    D|-----3------0---------------2-----|
    A|---3----------------------0-------|
    E|-1--------3-----------------------|

              G#m7           A
         Sin estar en tu presencia

    e|--------------0--------------3-|
    B|------------0--------------1---|
    G|----------0--------------2-----|
    D|-----------------------3-------|
    A|-------------------------------|
    E|--------0----------------------|

              F#m7       Bsus4         B  E/G#
         Sin saber que cerca estás

    e|--------------1--------------------------|
    B|------------3------------1-----1-0-----1-|
    G|----------2------------0-----0--------0--|
    D|--------0------------0-----0---------2---|
    A|-----------------------------------------|
    E|-------------------3----------------0----|

  Guitarra II:

    B|-------------------------5-----5-4-|
    G|-----------------------4-----4-----|
    D|---------------------4-----4-------|

       A       B          E                   G#m7
         Espérame que necesito

    e|--------------------------------0----------|
    B|---------------0------------1-3---3-1------|
    G|-------2-----0------------0-----------0--0-|
    D|-----3-----0----------0-2----------------0-|
    A|---3----------------3--------------------1-|
    E|-1-------3-------------------------------0-|

 Guitarra II:

    e|--------------------------------4-------------|
    B|----------------------------5-7---5-7---------|
    G|--------------------------------------4---4s6-|
    D|----------------------------------------6-----|

       A       B  G#7/C C#m7
         Tu mirada sobre mí

    e|----------------0---------|
    B|--------------3---------1-|
    G|-------2-0------------0---|
    D|-----3---0----------2-----|
    A|---3--------------0-------|
    E|-1-------3--4-------------|

               G#m7         A
         Llenas todos mis anhelos

    E|---------------0------------3-|
    B|-------------0------------1---|
    G|-----------0------------2-----|
    D|----------------------3-------|
    A|------------------------------|
    E|---------0--------------------|

              F#m7        Bsus4 B
         Solo así puedo vivir

    e|--------------1---------------------|
    B|------------3-------------1-----1-0-|
    G|----------2-------------0-----0-----|
    D|--------0-------------0-----0-------|
    A|------------------------------------|
    E|--------------------3---------------|

 Guitarra II:

    B|--------------------------5-----5-4-|
    G|------------------------4-----4-----|
    D|----------------------4-----4-------|

Coro.

Final:

       A        B       C#m7
    e|-------3--------3--------3---------|
    B|-0h1------0h1------0h1-----1-0-1-0-|
    G|-----0-----------------------0---0-|
    D|-3------------0--------2-----------|
    A|-------------------0-----------0---|
    E|----------3------------------3-----|

       A        B       C#m7
    e|-------3--------3--------3-----0-|
    B|-0h1------0h1------0h1-----3-----|
    G|-----0---------------------------|
    D|-3------------0--------2-----2---|
    A|-------------------0-------------|
    E|----------3----------------------|

       A        B       C#m7
    e|-------3--------3--------3---------|
    B|-0h1------0h1------0h1-----1-0-1-0-|
    G|-----0-----------------------0---0-|
    D|-3------------0--------2-----------|
    A|-------------------0-----------0---|
    E|----------3------------------3-----|

       A        B       C#m7
    e|-------3--------3--------3-|
    B|-0h1------0h1------0h1-----|
    G|-----0---------------------|
    D|-3------------0--------2---|
    A|-------------------0-------|
    E|----------3----------------|

          A         B
        Espérame Jesús

    e|----------3---------3-|
    B|----0h1-------0h1-----|
    G|--------0-------------|
    D|----3-------------0---|
    A|----------------------|
    E|--------------3-------|

                C#m7
        Por la mañana

    e|----------------3----------|
    B|----------0h1------1-0-1-0-|
    G|-------------------------0-|
    D|--------------2------------|
    A|----------0------------0---|
    E|---------------------3-----|

         A          B
        Amado mío espera

    e|---------3----------3-|
    B|---0h1--------0h1-----|
    G|-------0--------------|
    D|---3--------------0---|
    A|----------------------|
    E|--------------3-------|

                C#m7
        Allí estaré

    e|----------------3-----0-|
    B|----------0h1-----3-----|
    G|------------------------|
    D|--------------2-----2---|
    A|----------0-------------|
    E|------------------------|

              A
        Espérame
Suggest correction
Give kudos to tab author, rate the tab!
1 2 3 4 5
comments
print report bad tab
guest
Wanna post a correction for this tab? Suggest correction