Oops, an error
Loading. Please wait.

Espérame Chords

version 4
version 4

Whole song

Interactive

73 views 3 this week
no commentswrite comment
1 2 3 4 5
3 more votes to show rating
add to favorites
×
Save as Personal and add changes to this tab that will be seen only by you. Learn more ›
×
You can save this tab as Personal to edit and correct it or add notes. All changes will be seen only by you. Learn more »
save as personal
new!
launch autoscroll
font size
0
reset
transpose
0
reset
simplify chords
display chords
guitar tuner
Autoscroll
slow
fast
+/-
esc
set tempo
stop
Strumming
There is no strumming pattern for this song yet. and get +5 IQ
==INTRO==

e|---------7--------7---------7-------|---------|
B|-------0--------0---------0---------|---------|
G|--8/9------8/9-------8/9-------9-8--|--9---8--|
D|------------------------------------|---------|
A|--0--------7---------9--------------|--11--9--|
E|------------------------------------|---------|
                                             C#m7*
e|---------7--------7---------7-------|    e|-----|
B|-------0--------0---------0---------|    B|--5--|
G|--8/9------8/9-------8/9-------8-9--|    G|--4--|
D|------------------------------------|    D|--2--|
A|--0--------7---------9--------------|    A|--4--|
E|------------------------------------|    E|-----|

A2      B           C#m7* G#m7 B A
  Espérame por la mañana
      B               C#m7
antes de que salga el sol
       A               F#m7
antes que comience el día
        A           Bsus B
quiero darte mi canción

E/G# A      B             C#m7* B A
      Espérame cuando las aves
          B          C#m7
aun no empiezan a cantar
        A              F#m7
cuando todo esta en silencio
       A             Bsus B
yo contigo quiero hablar

==CORO==
      E         B
Espérame luz de mi corazón
  C#m7      A             F#m7
espérame estrella de la mañana
        Bsus B
te quiero ver
      E         B
Espérame dueño de mi amor

  C#m7      A             F#m7
espérame serás mi primera cita

      Bsus B
ahí estaré

==INTRO==

A2      B           C#m7* G#m7 B A
  Espérame desde temprano
       B                C#m7
yo no quiero el día empezar
       A           F#m7
sin estar en tu presencia
       A               Bsus B
sin saber que cerca estas

E/G# A      B          C#m7* B A
      Espérame que necesito
      B          C#m7
tu mirada sobre  mi
        A          F#m7
llenas todos mis anhelos
      A           Bsus B
solo así puedo vivir

==CORO== X2

(EL RESTO LO ACOMPAÑA CON EL INTRO)
Espérame..
Espérame..

Espérame Jesús por la mañana
amado mío espérame ahi estaré
Espérame..
Suggest correction
Give kudos to tab author, rate the tab!
1 2 3 4 5
comments
print report bad tab
guest
Wanna post a correction for this tab? Suggest correction