Oops, an error
Loading. Please wait.

Este Es El Día Bass Tab

10 views 1 this week
no commentswrite comment
1 2 3 4 5
3 more votes to show rating
add to favorites
launch autoscroll
font size
0
reset
guitar tuner
Autoscroll
slow
fast
+/-
esc
set tempo
stop
Help us to improve Ultimate-Guitar.com Take our survey!
×
Que tal; espero les guste esta rola, esta muy chida y es lo mejor que pude hacer 
ojalá les sea de bendición.


::Intro 1::

::Verso 1::

::Intro 2::                :: 3 Veces::                                                  ::1 Vez::
               
E |-2-2---0---1-2---------2---------------------------------2--2----0---1-2------2---------------
A |--------------------0---------0--0----2---0s2--2---------------------------0-------00---2-4--
D |----------------------------------------------------------------------------------------------
G |----------------------------------------------------------------------------------------------
B |----------------------------------------------------------------------------------------------


::Verso 2::   Ã?  ::Coro::         ::Este es el día... ::

E |-2--2----0---1--2-----2--------------------------------
A |---------------------0--------0--0----2---0s2---2------
D |-------------------------------------------------------
G |-------------------------------------------------------
B |-------------------------------------------------------


::Verso 3::                       ::Juntos caminemos a la casa... ::

E |--0s2---2--2------0--1-----2----------------2---
A |---------------------------0----------2--2------
D |------------------------------------------------
G |------------------------------------------------
B |------------------------------------------------


                                  ::Bendición ... ::

E |--------------------------------------------------------------------------
A |--9----------------7---------------5---------------------------4----------
D |-----11----------------9---------------7--------------9--7--------6-------
G |----------9h11-----------7h9-------------5h7---6--------------------4h6---
B |--------------------------------------------------------------------------


                                   :: Y su paz disfrutarás::

E |------------------------------------------------------------
A |-----2h4------2h4-------2h4------2h4------------------------
D |------------------------------------------------------------
G |------------------------------------------------------------
B |------------------------------------------------------------


::Puente::                               

E |---2--2---0--2-----5---2--0--2----2--2--0--2---5----2--0--2----
A |---------------------------------------------------------------
D |---------------------------------------------------------------
G |---------------------------------------------------------------
B |---------------------------------------------------------------


E |-2--5--------------------2--2--------------------2-----------2---4------------------
A |--------4h5-----5--4------------3h4-------2---------2--------------4-----4--412s2--
D |------------------------------------------------------------------------------------
G |------------------------------------------------------------------------------------
B |------------------------------------------------------------------------------------


Alguna duda o sugerencia; ya saben en donde encontrarme.

G O D   B L E S S   Y O U ! ! !
Suggest correction
Give kudos to tab author, rate the tab!
1 2 3 4 5
comments
print report bad tab
guest
You may want to rate the tab now too:
select rating
Wanna post a correction for this tab? Suggest correction