Oops, an error
Loading. Please wait.

Gloria, Reino Y Poder Tab

version 1
version 1

Whole song

53 views 3 this week
no commentswrite comment
1 2 3 4 5
3 more votes to show rating
add to favorites
×
Save as Personal and add changes to this tab that will be seen only by you. Learn more ›
×
You can save this tab as Personal to edit and correct it or add notes. All changes will be seen only by you. Learn more »
save as personal
new!
launch autoscroll
font size
0
reset
how to read this tab
guitar tuner
Autoscroll
slow
fast
+/-
esc
set tempo
stop
Este es el intro de esta cancion esta de pelos.
Sacala, es original solo le tienes que dar el sabor...

Intro:  G#m

E |--------------------------------------------------|
A |--------------------------------------------------|
D |--------------------------------------------------|
G |--------------------------------------------------|
B |----9-12------------------12----------12--11--8---|
E |----------11--12-9--12-11------11--9--------------|


E |--------------------------------------------------|
A |--------------------------------------------------|
D |--------------------------------------------------|
G |--------------------------------------------------|
B |----9-12------------------12----------8--9--11----|
E |----------11--12-9--12-11------11--9--------------|


E |--------------------------------------------------|
A |--------------------------------------------------|
D |--------------------------------------------------|
G |--------------------------------------------------|
B |----9-12------------------12----------12--11--8---|
E |----------11--12-9--12-11------11--9--------------|


E |--------------------------------------------------|
A |--------------------------------------------------|
D |--------------------------------------------------|
G |-------------------------------8--------8---------|
B |----9-12----------------7s--9-----7-7------7s-----|
E |----------11--12-9--12----------------------------|


Esto es la guitarra acustica donde va entre
medio del verso, aguas que es un poco rapido....


E |--------------------------------------------------|
A |--------------------------------------------------|
D |--------------------------------------------------|
G |------------------------------------11------------|
B |----9-11--12--------------12--11--9-----9s--9-----|
E |---------------9--11--9---------------------------|
Suggest correction
Give kudos to tab author, rate the tab!
1 2 3 4 5
comments
print report bad tab
guest
Wanna post a correction for this tab? Suggest correction