Oops, an error
Loading. Please wait.

Gloria, Reino Y Poder Tab

version 2
version 2

Whole song

32 views 1 this week
no commentswrite comment
1 2 3 4 5
3 more votes to show rating
add to favorites
launch autoscroll
font size
0
reset
how to read this tab
guitar tuner
×
Best way to learn
"Gloria, Reino Y Poder"
Autoscroll
slow
fast
+/-
esc
set tempo
stop
E |--------------------------------------------------|
A |--------------------------------------------------|
D |--------------------------------------------------|
G |--------------------------------------------------|
B |----9-12------------------12----------11--8-------|
e |----------11--12-9--12-11------11--9--------------|

E |--------------------------------------------------|
A |--------------------------------------------------|
D |--------------------------------------------------|
G |--------------------------------------------------|
B |----9-12------------------12----------8--9--11----|
e |----------11--12-9--12-11------11--9--------------|


E |--------------------------------------------------|
A |--------------------------------------------------|
D |--------------------------------------------------|
G |--------------------------------------------------|
B |----9-12------------------12---------11--8--------|
e |----------11--12-9--12-11------11--9--------------|


E |--------------------------------------------------|
A |--------------------------------------------------|
D |--------------------------------------------------|
G |-------------------------------8--------8---------|
B |----9-12------------------9-9-----7-7------7------|
e |----------11--12-9--12----------------------------|


precoro:

E |--------------------------------------------------|
A |--------------------------------------------------|
D |--------------------------------------------------|
G |--------------------------------------------------|
B |--12-12-12----11-11-11---9-9-9--------------------|
e |--11-11-11----9--9--9----7-7-7--------------------|

estrofa(despues del coro):

E |--------------------------------------------------|
A |--------------------------------------------------|
D |--------------------------------------------------|
G |--------------------------------------------------|
B |---8-9-11-----------------------------------------|
e |----------7-9-11-9-7-6h7p8-4-4~-------------------|

ACORDES..
Intro:  ///G#m-C#m G#m-F#///
           G#m-C#m (G#m F#-G#m)

Estrofa:  //G#m-C#m G#m-F# (G#m)
            E-F#  G#m//

Preocoro:  //B-F#7  C#m-G#m//

Coro:   //E-F# G#m//
Suggest correction
Give kudos to tab author, rate the tab!
1 2 3 4 5
comments
print report bad tab
guest
You may want to rate the tab now too:
select rating
Wanna post a correction for this tab? Suggest correction