Oops, an error
Loading. Please wait.

Gloria, Reino Y Poder Bass Tab

28 views 1 this week
no commentswrite comment
1 2 3 4 5
3 more votes to show rating
add to favorites
launch autoscroll
font size
0
reset
guitar tuner
Autoscroll
slow
fast
+/-
esc
set tempo
stop
Help us to improve Ultimate-Guitar.com Take our survey!
×
ola que tal, Soy yo de nuevo, josue, y en esta ocasion les traigo
esta cancion que es muy buena y chida.

Esta version de la cancion es del disco "Unplugged"
Les dejo la cancion:

Afinacion: G D A E B

Intro:
G |----8--9--6--9--8--4--8--6-------------8--9--6--9--8--4--8--6------
D |6-9------------------------8--5---6--9------------------------5-6-8
A |--------------------------------6----------------------------------
E |-------------------------------------------------------------------
B |-------------------------------------------------------------------

G ----8--9--6--9--8--4--8--6-------------8--9--6--9----------------|
D 6-9------------------------8--5---6--9-------------------4-4---6-|
A --------------------------------6----------------------6-----6---|
E ---------------------------------------------------4-4-----------|
B -----------------------------------------------------------------|


Versos:
G |------------------------------------------------------------------
D |------6-----------------------------------------------6-----------
A |--6-4------6--------------------------------------6-4-----6/---4--
E |4--------4---2---4---4-2-0---2--2-4--2-4--6-2-2s4-------4----2---4
B |---------------2---4-------2--------------------------------------

G ----------------------------------------8-------------------------|
D ------------------------------4--------8-------6------------4-4--6|
A -----------------------------2---4-55-6------4---4-4------6----6--|
E --4-2-0---2--2--4--2--4-4--6--------------6------------4-4--------|
B 4-------2---------------------------------------------------------|


Coro:
G |-------------------------------------------------------------------
D |-------------------------------------------------------------------
A |-------------------------------------------------------------------
E |0-4-2--2-4---4--2-0----2--2-4---4--4-2-0---2-2-4---4-4-2-0---2--2--
B |-----------4---------2--------4----------2-------4---------2-------

G --------------------------------------------------------|
D ---------------------------------------------4-4---6----|
A -------------------------------------------6-----6------|
E -4---4--4-2-0---2-2-4---4-4-2-0---2-2-4-4---------------|
B ---4----------2-------4---------2-----------------------|

Toda la cancion sigue con la misma tablatura.

A continuacion les dejo los adornos de esta cancion con el tiempo
exacto en el cual se hace cada adorno.
sigan la pista con la tablatura y chequenla con su propio bajo
para que salga de dudas ok?

El parentesis con los numeros adentro son el tiempo.
Estos adornos son rapidos. Escuchen bien la pistta para
no perderse.

  (1:48)          (2:07)     (2:35)              (2:45)
G |---------------|----------|---6-4-------------|-------------------|
D |---6-7-8--4-4s6|--6s8-----|-------6-4---------|------4-6-4--------|
A |-9-------------|--------2-|-----------6-4-----|--4-6-------6-4----|
E |---------------|------6---|---------------6-4-|---------------6-0-|
B |---------------|----------|-------------------|-------------------|

Puente durante el solo de piano:
G |------------------------------------------------------------------
D |-----------------------5-6---6-8-9-8-6----------------------------
A |--2---4------------2s9-----6-------------2----4-------------------
E |-0-2---4--4--2-0-2----------------------0-2----4---4--2-0-2-2-----
B |---------4------2---------------------------------4------2--------

                          Puente durante el solo de percusiones:
G ---------------------|-----------------------6-4-------------------
D ---------------------|---------------------------6-4---------------
A 4-5-6---7-8-9---10-12|-2--------------2--------------6-4-----------
E ---------------------|0-2-2-4--12s1--0-2-2-4-------------6-4-2-0---
B ---------------------|----------------------------------------4-2--

G ----------------------------------------|
D -------------------------8--6----5-4-3--|
A ----------------------------------------|
E -2---4---4------0---2-2-----------------|
B ---4---4----------2---------------------|

Demas adornos:
  (3:39)                  (3:58)
G |-----------------------|--6-4-----------------|
D |------4----------------|-----6-4--------------|
A |--4-6---6-4------------|--------6-4-----------|
E |------------6-4-2-----0|-----------6-4-2-0----|
B |------------------4-2--|----------------4-2---|

Final:
G |----8--9--6--9--8--4--8--6-------------8--9--6--9--8--4--8--6------
D |6-9------------------------8--5---6--9------------------------5-6-8
A |--------------------------------6----------------------------------
E |-------------------------------------------------------------------
B |-------------------------------------------------------------------

G ----8--9--6--9--8--4--8--6-------------8--9--6--9-----------------|
D 6-9------------------------8--5---6--9-------------------4-4---6--|
A --------------------------------6----------------------6-----6----|
E ---------------------------------------------------4-4-----------4|
B ------------------------------------------------------------------|

Esta es toda la cancion, me costo un poco de trabajo sacarla por los
adornos y otras cosas pero aqui esta y espero que les ayude bastante.

Dudas, comentarios, quejas o correcciones ocualquier otro tipo de
mensaje comuniquense conmigo a mi correo: soyfangh@

Dios les bendiga.
Suggest correction
Give kudos to tab author, rate the tab!
1 2 3 4 5
comments
print report bad tab
guest
You may want to rate the tab now too:
select rating
Wanna post a correction for this tab? Suggest correction