Oops, an error
Loading. Please wait.

Jesús (2010) Tab

71 views 1 this week
no commentswrite comment
1 2 3 4 5
3 more votes to show rating
add to favorites
launch autoscroll
font size
0
reset
how to read this tab
guitar tuner
×
Best way to learn
"Jesús (2010)"
Autoscroll
slow
fast
+/-
esc
set tempo
stop
JESUS
Jesus Adrian Romero & Marcos Vidal

Tono: Cm

Para esta canción vamos a utilizar un capo en el 3er traste;
 es decir vamos a estar haciendo la figura de ?Am? y asi
sucesivamente el resto de acordes?

INTRO:
  Am A4add9 Aadd9 Am   Cmaj7 C
e-------------------------------------
B---1s3---3---5---1-----0--1--0-------
G---2s4---4---4---2-------0-----0-----
D-------------------------------------
A---0-------------0-----3-------------
E-------------------------------------

  Dm9  Dsus4  Dm9     E7
e--0--1-3-0-0h1h0-------0--------------
B--3-------3-----3----3--3-------------
G--2-------------------1--1------------
D--3-----------------------------------
A--------------------------------------
E---------------------0----------------


 Am A4add9 Aadd9 Am  Cmaj7 C
e--------------------------------------
B---1s3---3---5---1---0--1-0h1h0-------
G---2s4---4---4---2-----0-------0------
D--------------------------------------
A---0-------------0---3----------------
E--------------------------------------

  Dm9  Dsus4  Dm9     E7
e--0--1-3-0-0h1h0-------0--------------
B--3-------3-----3----3--3-------------
G--2-------------------1--1------------
D--3-----------------------------------
A--------------------------------------
E---------------------0----------------


ESTROFA
Verso 1:

 Am A4add9 Aadd9 Am  Cmaj7 C
e--------------------------------------
B---1s3---3---5---1---0--1-0h1h0-------
G---2s4---4---4---2-----0-------0------
D--------------------------------------
A---0-------------0---3----------------
E--------------------------------------
Cuando brilla el sol, cuando sopla el viento

  Dm9  Dsus4  Dm9     E7
e--0--1-3-0-0h1h0-------0---0----------
B--3-------3-----3----3--3---3---------
G--2-------------------1--1------------
D--3-----------------------------------
A--------------------------------------
E---------------------0----------------
Quiero estar atento, quiero darte mi atención?

Verso 2:

Am A4add9 Aadd9 Am  Cmaj7 C
e--------------------------------------
B---1s3---3---5---1---0--1-0h1h0-------
G---2s4---4---4---2-----0-------0------
D--------------------------------------
A---0-------------0---3----------------
E--------------------------------------
Y al anochecer, hasta en el silencio

Dm9  Dsus4  Dm9     E7
e--0--1-3-0-0h1h0-------0---0----------
B--3-------3-----3----3--3---3---------
G--2-------------------1--1------------
D--3-----------------------------------
A--------------------------------------
E---------------------0----------------
Quiero estar atento y escuchar asi tu voz?

PreCoro:

    Dm9           Cmaj7 C Csus4
e--0h1--0-0h1h0--------------------------
B--3--3--3-----3-----0--1----------------
G--2---2--------2-----0--0---------------
D--3----------------------3--2-----------
A--------------------3------3------------
E----------------------------------------
Quiero que en mi viaje seas tu el camino

   Bsemid7         E7sus4 E Esus4 E/G#
e--------0-0h1h0------------------------------
B-----3---3-----3-------0----------0----------
G----2-2---------2---2---2-1----2--1----------
D---3-------------3---2-----2---2-------------
A--2-----2------------------------------------
E--------------------0-----0----0--4----------
Seas el destino y el paisaje alrededor (a mi alrededor)
CORO:
 Am Asus4 Cmaj7 C Csus2  Dm9     Esus4 E
e-----0------------------0h1--0----------------
B--1-3-----0---1--3------3-----3---------------
G---2--------0-----------2--------2---1--------
D------------------------3---------2---2--------
A--0-------3-----------------------------------
E---------------------------------0---0--------
  Jesus?????                 eres todo para mi

 Am Asus4  C6   F(+4)  Esus4 E
e-----0-----5--------------------------------------
B--1-3-------5------0--------------------------------
G---2---------5---2--2---2---1-------------------------
D------------------3------2---2-----------------
A--0--------3--------------------------------------
E-----------------1------0--0---------------------
 No falta nada tu presencia es mi morada


Am Asus4 Cmaj7 C Csus2  Dm9     Esus4 E
e-----0------------------0h1--0----------------
B--1-3-----0---1--3------3-----3---------------
G---2--------0-----------2--------2---1--------
D------------------------3---------2---2--------
A--0-------3-----------------------------------
E---------------------------------0---0--------
  Jesus??????  puedo disfrutar en ti confiadamente


  Fmaj7(+4)    Esus4  E
e-----0-0--------------------------------------
B----0-----0------0-----------------------------
G--2--------2---2--2---1----------------------------
D---3-----3------2------------------------------
A--------------------------------------------
E--1------------0------0---------------------------
 Confiadamente? Jesus  mi complemento


INTRO(nuevamente)

Am A4add9 Aadd9 Am  Cmaj7 C
e--------------------------------------
B---1s3---3---5---1---0--1-0h1h0-------
G---2s4---4---4---2-----0-------0------
D--------------------------------------
A---0-------------0---3----------------
E--------------------------------------

  Dm9  Dsus4  Dm9     E7
e--0--1-3-0-0h1h0-------0--------------
B--3-------3-----3----3--3-------------
G--2-------------------1--1------------
D--3-----------------------------------
A--------------------------------------
E---------------------0----------------

ESTROFA 2
Verso 1:

Am A4add9 Aadd9 Am  Cmaj7 C
e--------------------------------------
B---1s3---3---5---1---0--1-0h1h0-------
G---2s4---4---4---2-----0-------0------
D--------------------------------------
A---0-------------0---3----------------
E--------------------------------------
 Quiero derpertar, ver un mundo Nuevo


Dm9  Dsus4  Dm9     E7
e--0--1-3-0-0h1h0-------0---0----------
B--3-------3-----3----3--3---3---------
G--2-------------------1--1------------
D--3-----------------------------------
A--------------------------------------
E---------------------0----------------
 Y cada momento la jornada disfrutar?

Verso 2:

Am A4add9 Aadd9 Am  Cmaj7 C
e--------------------------------------
B---1s3---3---5---1---0--1-0h1h0-------
G---2s4---4---4---2-----0-------0------
D--------------------------------------
A---0-------------0---3----------------
E--------------------------------------
 Quiero al caminar, perder el aliento

  Dm9  Dsus4  Dm9     E7
e--0--1-3-0-0h1h0-------0---0----------
B--3-------3-----3----3--3---3---------
G--2-------------------1--1------------
D--3-----------------------------------
A--------------------------------------
E---------------------0----------------
 Viendo la belleza de las cosas que me das?

PreCoro:

Dm9           Cmaj7 C Csus4
e--0h1--0-0h1h0--------------------------
B--3--3--3-----3-----0--1----------------
G--2---2--------2-----0--0---------------
D--3----------------------3--2-----------
A--------------------3------3------------
E----------------------------------------
Quiero que en mi viaje seas tu el camino

   Bsemid7         E7sus4 E Esus4 E/G#
e--------0-0h1h0------------------------------
B-----3---3-----3-------0----------0----------
G----2-2---------2---2---2-1----2--1----------
D---3-------------3---2-----2---2-------------
A--2-----2------------------------------------
E--------------------0-----0----0--4----------
Seas el destino y el paisaje alrededor (a mi alrededor)


CORO:
 Am Asus4 Cmaj7 C Csus2  Dm9     Esus4 E
e-----0------------------0h1--0----------------
B--1-3-----0---1--3------3-----3---------------
G---2--------0-----------2--------2---1--------
D------------------------3---------2---2--------
A--0-------3-----------------------------------
E---------------------------------0---0--------
  Jesus?????                 eres todo para mi

 Am Asus4  C6   F(+4)  Esus4 E
e-----0-----5--------------------------------------
B--1-3-------5------0--------------------------------
G---2---------5---2--2---2---1-------------------------
D------------------3------2---2-----------------
A--0--------3--------------------------------------
E-----------------1------0--0---------------------
 No falta nada tu presencia es mi morada

Am Asus4 Cmaj7 C Csus2  Dm9     Esus4 E
e-----0------------------0h1--0----------------
B--1-3-----0---1--3------3-----3---------------
G---2--------0-----------2--------2---1--------
D------------------------3---------2---2--------
A--0-------3-----------------------------------
E---------------------------------0---0--------
  Jesus??????  puedo disfrutar en ti confiadamente


  Fmaj7(+4)    Esus4  E
e-----0-0---------------------------------------
B----0-----0------0-----------------------------
G--2--------2---2--2---1------------------------
D---3-----3------2------------------------------
A-----------------------------------------------
E--1------------0------0------------------------
 Confiadamente? Jesus  mi complemento


PUENTE:
  Am  G  F  G Am7 G/B F(+4) C   Dm9
e---------------------------------0h1h0-3-0-------
B--1--0-----3--1---0----1---------3---------------
G--2--0--2--0--0---0--4-----0-----2---------------
D--------3-------------3----------3---------------
A--0-----------0---2--------3---------------------
E-----3--1--3---------1---------------------------

  G  Gsus4 G   Am7 Asus4 Am
e-----------0---------0---------------------------
B--0--1--3------1--3----3-1-----------------------
G---0--0--0------0--0-----------------------------
D-------------------------------------------------
A--------------0----------------------------------
E--3----------------------------------------------
 Quiero en ti confiar y en tus caminos siempre andar

   Dm9 Dsus4     Cmaj7 C Csus2  Esus4 E
e--0h1-0--3-1-0------------------------------------
B-----3-3------3-1--0--1--3-------0----------------
G--------------------0--0-------2--2--1------------
D--0-----------------------------2--2--------------
A-------------------3------------------------------
E-------------------------------0-----0------------
 Poniendo siempre la mirada en ti jesus cada mañana para
 Jamás volver atrás?


  Am7  Asus4
e------0---------------------------------------
B--1--3--1-------------------------------------
G---0------------------------------------------
D----------------------------------------------
A--0-------------------------------------------
E----------------------------------------------
  Jesus???

En este tramo de la canción sube 1semitono; es decir C#m?
(Pero vamos a estar usando la figura de Bbm y asi sucesivamente
El resto de acordes)

Coro:

Bbm Bbsus4 C#maj7 C# C#sus2  Ebm9 Fsus4 F
e-----1------------------1h2--1----------------
B--2-4-----1---2--4------4-----4---------------
G---3--------1-----------3--------3---2--------
D------------------------4---------3---3-------
A--1-------4-----------------------------------
E---------------------------------1---1--------
                      eres todo para mi

 Bbm Bbsus4  C#6  F#(+4) Fsus4 F
e-----1-----6------------------------------------
B--2-4-------6------1----------------------------
G---3---------6---3--3---3---2-------------------
D------------------4------3---3------------------
A--1--------4------------------------------------
E-----------------2------1--1--------------------
 No falta nada tu presencia es mi morada


  Bbm7 Ab/C C#maj7 F     Ebm9 Fsus4 F
e-----------1----1---------1h2--1----------------
B--2----4----1---1---------4-----4---------------
G---1----1----1------------3--------3---2--------
D----3----1----------------4---------3---3-------
A--1----3---4------------------------------------
E----------------1-----------------1---1---------
  Jesus??????         puedo disfrutar en ti confiadamente

   F#maj7(+4)    Fsus4  F
e-----1-1---------------------------------------
B----1-----1------1-----------------------------
G--3--------3---3--3---2------------------------
D---4-----4------3------3-----------------------
A-----------------------------------------------
E--2------------1------1------------------------
 Confiadamente? Jesus  mi complemento

OUTRO:

Bbm Bb4add9 Bbadd9 Bbm  C#maj7 C#
e--------------------------------------
B---2s4---4---6---2---1--2-1h2h1-------
G---3s5---5---5---3-----1-------1------
D--------------------------------------
A---1-------------1---4----------------
E--------------------------------------

Ebm9  Ebsus4 Ebm9    Fsus4 FAug5 F
e--1--2-4-1-1h2h1----------------------
B--4-------4-----4------1---2-1--------
G--3------------------3--3--2-2--------
D--4-------------------3----3-3--------
A--------------------------------------
E---------------------1-----1-1--------
                            mi complemento

  Bbm9
e-------6-------------------------------
B------6--------------------------------
G-----6---------------------------------
D----10---------------------------------
A---8-----------------------------------
E--6------------------------------------

Dios los bendiga?
Pueden hacer sugerencias a mi facebook
Me encontraran como Markos Rivera
Santo domingo_Ecuador
Desde IPUIE_Santo Domingo
Suggest correction
Give kudos to tab author, rate the tab!
1 2 3 4 5
comments
print report bad tab
guest
You may want to rate the tab now too:
select rating
Wanna post a correction for this tab? Suggest correction