Oops, an error
Loading. Please wait.

Jesús Es El Señor Tab

38 views 1 this week
no commentswrite comment
1 2 3 4 5
3 more votes to show rating
add to favorites
launch autoscroll
font size
0
reset
how to read this tab
guitar tuner
Autoscroll
slow
fast
+/-
esc
set tempo
stop
Help us to improve Ultimate-Guitar.com Take our survey!
×
  Aqui les va el solo de esta cancion
 guitarra notas:Ebmaj7-Bb/D-Cm7-Gm7-G#-Eb/G-C-D

E------------11v-10----10------------------------------
B---8-10-11v--------13----13-11v-----------------------
G-7------------------------------7/-8(8)v-10-8-7-10-----
D------------------------------------------------------
A------------------------------------------------------
E------------------------------------------------------

E------(10)-----------16-15-13-15-13-------------------
B-11-13-15---12-15-16----------------16----------------
G------------------------------------------------------
D------------------------------------------------------
A------------------------------------------------------
E------------------------------------------------------

E-----14/1515--14H15-17----17v/22/---------------------
B--16-------------------15v----------------------------
G------------------------------------------------------
D------------------------------------------------------
A------------------------------------------------------
E------------------------------------------------------

/:Deslizar
H:Martillar(hammer)
():Nota opcional,depende del musico que la ejecute(puede reemplazarce
por un vibrato)
v:Vibrar cuerda

Hola,ahi les va el solo de esta hermosa cancion,cualquier error no duden
en escribirme(AUNQUE NO LO CREOO)
                                BENDICIONES..,
Suggest correction
Give kudos to tab author, rate the tab!
1 2 3 4 5
comments
print report bad tab
guest
You may want to rate the tab now too:
select rating
Wanna post a correction for this tab? Suggest correction