Oops, an error
Loading. Please wait.

Leche Y Miel Tab

64 views 1 this week
no commentswrite comment
1 2 3 4 5
3 more votes to show rating
add to favorites
launch autoscroll
font size
0
reset
how to read this tab
guitar tuner
×
Best way to learn
"Leche Y Miel"
Autoscroll
slow
fast
+/-
esc
set tempo
stop
oOOk...cOloquen el capO en el 2do. traste
desde ahí cuenta la Tablatura ( Intro y final)
Chekeen los acordes al final para q se guien.

INTRO:

   Bm                     F#m
e-|--------------------------------------------|
B-|-------1-1-1------3-1-----------------------|
G-|---0h2-2-2-2--0h2-2-2--------0-0-0------2-0-|
D-|---0h2--------0h2--------0h2-2-2-2--0h2-2-2-|
A-|-0-----------0--------0--0h2--------0h2-----|
E-|-----------------------0-----------0--------|


   Bm                     F#m
e-|--------------------------------------------|
B-|-------1-1-1------3-1-----------------------|
G-|---0h2-2-2-2--0h2-2-2--------0-0-0------2-0-|
D-|---0h2--------0h2--------0h2-2-2-2--0h2-2-2-|
A-|-0-----------0--------0--0h2--------0h2-----|
E-|-----------------------0-----------0--------|


I
           Bm
Aunque las cosas no marchen bien
             F#7
y se caiga el mundo a mi alrededor
           F#7/A#
aunque pregonen por todas partes
           Bm                    G - F#7
son malos tiempos no hay solución
         Bm
y no se siente tanto lo duro
           F#7
sino lo tupido dicen por ahí
            F#7/A#
si estas conmigo yo estoy seguro
            Bm
no me preocupo, todo irá muy bien.


PRE-CORO:
G                                        D
  Nunca creas la mentira que a veces te cuentan por ahí
      Em
si a Jesús has entregado tu vida,
      F#7         G    F#7
muy triste has de vi - vir.


CORO:
( aquí se toca el arpegio de la intro)
    Bm
Me sabe a leche, me sabe a miel
   F#m
Me sabe a dulce, me sabe bien
   Bm
me sabe a cielo, me sabe a sol
   F#m
me sabe a brisa, me sabe a amor
   G                   F#7   G - F#7
Me sabe bien la vida contigo


II
             Bm
Se que en la vida vendrán momentos
            F#7
Cuando las nubes me cubrirán
         F#7/A#
y por el valle de la tristeza
           Bm              G - F#7
mis pies cansados caminarán
           Bm
y aunque parezca que a veces lucho
         F#7
para agradarte, para crecer
           F#7/A#
si estas conmigo yo estoy seguro
           Bm
no me preocupo, todo irá muy bien.


PRE-CORO:
G                                          D
   Nunca creas la mentira que a veces te cuentan por ahí
       Em
si a Jesús has entregado tu vida,
      F#7         G    F#7
muy triste has de vi - vir.


CORO:
( aquí se toca el arpegio de la intro)
    Bm
Me sabe a leche, me sabe a miel
   F#m
Me sabe a dulce, me sabe bien
   Bm
me sabe a cielo, me sabe a sol
   F#m
me sabe a brisa, me sabe a amor
   G                   F#7   F#7/A#
Me sabe bien la vida contigo

    Bm
Me sabe a leche, me sabe a miel
   F#m
Me sabe a dulce, me sabe bien
   Bm
me sabe a cielo, me sabe a sol
   F#m
me sabe a brisa, me sabe a amor
   G                   F#7   G - F#7
Me sabe bien la vida contigo             Me sabe a miel


   Bm                     F#m
e-|--------------------------------------------|
B-|-------1-1-1------3-1-----------------------|
G-|---0h2-2-2-2--0h2-2-2--------0-0-0------2-0-|
D-|---0h2--------0h2--------0h2-2-2-2--0h2-2-2-|
A-|-0-----------0--------0--0h2--------0h2-----|
E-|-----------------------0-----------0--------|

    G                     A          F#7
e-|---------------------------------------0---|
B-|-------1-1-1------3-1--------3-3-3-------3-|
G-|---0h2-2-2-2--0h2-2-2----0h4-4-4-4--0h4----|
D-|---0h3--------0h3--------5-----------------|
A-|-------------------------------------------|
E-|-1-----------1---------3-----------0-------|

Esto se hace 4 veces y termina el canto

A C O R D E S:

                Bm

      1    2    3    4    5
e-| |----|-||-|----|----|----|----|
B-| |----|-||-|-
Suggest correction
Give kudos to tab author, rate the tab!
1 2 3 4 5
comments
print report bad tab
guest
You may want to rate the tab now too:
select rating
Wanna post a correction for this tab? Suggest correction