Oops, an error
Loading. Please wait.

Libertad Bass Tab

version 1
version 1

Whole song

Interactive

57 views 1 this week
no commentswrite comment
1 2 3 4 5
3 more votes to show rating
add to favorites
launch autoscroll
font size
0
reset
guitar tuner
×
Best way to learn
"Libertad"
Autoscroll
slow
fast
+/-
esc
set tempo
stop
Hola como están, aquí está esta alabanza que esta bien original

Intro I:
Los slide se hacen con el tiempo del teclado
en el teclado son 2 compases por eso 2 slide
B------------------|-------------------|
E----17--s--3------|-----17--s--3------|
A------------------|-------------------|
D------------------|-------------------|
G------------------|-------------------|
Si tocas bajo de 5, has el slide en B, se oye bien.
Luego entran todos los instrumentos.
La figuras del Intro II:
B---------------------------|----------------------------|
E---------------------------|----------------3--4--5-----|
A--5--5----3---5--3---------|--5-5----3--5---------------|
D--------------------3---5--|----------------------------|
G---------------------------|----------------------------|
3 veces

B-----------------------|
E-----------------------|
A--5-5-5---3---5--------|
D-----------------------|
G-----------------------|

Estrofa:
B---------------------------|----------------------------|
E---------------------------|----------------3--4--5-----|
A--5--5----3---5--3---------|--5-5----3--5---------------|
D--------------------3---5--|----------------------------|
G---------------------------|----------------------------|
2 veces

Luego
B-----------------------------------------------------|
E---3-3-3------2-2-2--------0-2----------0-3---3-4-5--|
A-----------3---------2-2--------0-2------------------|
D-----------------------------------------------------|
G-----------------------------------------------------|
Se repite la estrofa otra vez.
-Coro:
B---------------------------|----------------------------|
E-------------------5--6----|---------------------5--6---|
A--5--5----3--3--5----------|--3-4?5--5---3--3--5--------|
D---------------------------|----------------------------|
G---------------------------|----------------------------|

B--------------------------|----------------------------|
E--------------------3--3--|--------1------0-3---3-4-5--|
A--3-4-5--5----3--5--------|--1--1------3---------------|
D--------------------------|----------------------------|
G--------------------------|----------------------------|
2 veces

-Intro I.

-Estrofa.

-Luego va el coro

-Intro I y II

-En el solo de saxo se queda en G.

Las figuras del puente:
B-----------------------------------------------------|
E-----0----2------3----5--------0----2------3-----5---|
A-----------------------------------------------------|
D-----------------------------------------------------|
G-----------------------------------------------------|

-Coro
Final:
¡Libertad!

		B-------------------|
E--3-5-----5--------|
A-------3-----3-5---|
D-------------------|
G-------------------|

Este coro es algo complicado pero si la escuchas sacarás los tiempos.
Espero que te sirva para tocarla si no entiendes algo o no puedes 
leerla mándame un mail y con gusto contestare.
¡BENDICIONES!
Suggest correction
Give kudos to tab author, rate the tab!
1 2 3 4 5
comments
print report bad tab
guest
You may want to rate the tab now too:
select rating
Wanna post a correction for this tab? Suggest correction