Oops, an error
Loading. Please wait.

Libertad Tab

version 1
version 1

Whole song

Interactive

24 views 3 this week
no commentswrite comment
1 2 3 4 5
3 more votes to show rating
add to favorites
launch autoscroll
font size
0
reset
how to read this tab
guitar tuner
Autoscroll
slow
fast
+/-
esc
set tempo
stop
Help us to improve Ultimate-Guitar.com Take our survey!
×
ESTO ES EL SOLO DE FAX

E-8H10-8-5---------------------------8-5---------8-5
B---------8-6---8S10-8----8S10-8---------8-6-8-6-----
G------------7-5-------7-5-------7-5-----------------


E---5--------------------------------------------5-----3
B-5--5-4-3------------3-6-3-------------3-6-1-3---6-----5
G---------6-5-3-2-3-5-------------2-3-5-------------7----5
D--------------------------5-4-3-5------------------------5-7-5-3-2


E-----------------------3-5-8-10--10^12-10^1210^12--
B----------------2-3-5----------------------------------
G---------2-3-5----------------------------------------
D-0-2-3-5----------------------------------------------


E-10-8-5------------------5-8
B--------8-6----------6-8----
D------------5-7--5-7--------

NO ESTOY TODAVIA SEGURO DEL FINAL PERO SI LOGRO DESIFRARLO SE LOS PASO
DIOS LES BEDIGA  HASTA LA PROXIMA
Suggest correction
Give kudos to tab author, rate the tab!
1 2 3 4 5
comments
print report bad tab
guest
You may want to rate the tab now too:
select rating
Wanna post a correction for this tab? Suggest correction